  0
SECTION
  2
HEADER
  9
$ACADVER
  1
AC1024
  9
$ACADMAINTVER
 70
     6
  9
$DWGCODEPAGE
  3
ANSI_1252
  9
$LASTSAVEDBY
  1
marvn
  9
$INSBASE
 10
0.0
 20
0.0
 30
0.0
  9
$EXTMIN
 10
412.4063369375345
 20
681.0
 30
0.0
  9
$EXTMAX
 10
823.9543112619253
 20
1002.5
 30
0.0
  9
$LIMMIN
 10
0.0
 20
0.0
  9
$LIMMAX
 10
420.0
 20
297.0
  9
$ORTHOMODE
 70
     0
  9
$REGENMODE
 70
     1
  9
$FILLMODE
 70
     1
  9
$QTEXTMODE
 70
     0
  9
$MIRRTEXT
 70
     1
  9
$LTSCALE
 40
1.0
  9
$ATTMODE
 70
     1
  9
$TEXTSIZE
 40
2.5
  9
$TRACEWID
 40
1.0
  9
$TEXTSTYLE
  7
Standard
  9
$CLAYER
  8
0
  9
$CELTYPE
  6
ByLayer
  9
$CECOLOR
 62
   256
  9
$CELTSCALE
 40
1.0
  9
$DISPSILH
 70
     0
  9
$DIMSCALE
 40
1.0
  9
$DIMASZ
 40
2.5
  9
$DIMEXO
 40
0.625
  9
$DIMDLI
 40
3.75
  9
$DIMRND
 40
0.0
  9
$DIMDLE
 40
0.0
  9
$DIMEXE
 40
1.25
  9
$DIMTP
 40
0.0
  9
$DIMTM
 40
0.0
  9
$DIMTXT
 40
2.5
  9
$DIMCEN
 40
2.5
  9
$DIMTSZ
 40
0.0
  9
$DIMTOL
 70
     0
  9
$DIMLIM
 70
     0
  9
$DIMTIH
 70
     0
  9
$DIMTOH
 70
     0
  9
$DIMSE1
 70
     0
  9
$DIMSE2
 70
     0
  9
$DIMTAD
 70
     1
  9
$DIMZIN
 70
     8
  9
$DIMBLK
  1

  9
$DIMASO
 70
     1
  9
$DIMSHO
 70
     1
  9
$DIMPOST
  1

  9
$DIMAPOST
  1

  9
$DIMALT
 70
     0
  9
$DIMALTD
 70
     3
  9
$DIMALTF
 40
0.03937007874016
  9
$DIMLFAC
 40
1.0
  9
$DIMTOFL
 70
     1
  9
$DIMTVP
 40
0.0
  9
$DIMTIX
 70
     0
  9
$DIMSOXD
 70
     0
  9
$DIMSAH
 70
     0
  9
$DIMBLK1
  1

  9
$DIMBLK2
  1

  9
$DIMSTYLE
  2
ISO-25
  9
$DIMCLRD
 70
     0
  9
$DIMCLRE
 70
     0
  9
$DIMCLRT
 70
     0
  9
$DIMTFAC
 40
1.0
  9
$DIMGAP
 40
0.625
  9
$DIMJUST
 70
     0
  9
$DIMSD1
 70
     0
  9
$DIMSD2
 70
     0
  9
$DIMTOLJ
 70
     0
  9
$DIMTZIN
 70
     8
  9
$DIMALTZ
 70
     0
  9
$DIMALTTZ
 70
     0
  9
$DIMUPT
 70
     0
  9
$DIMDEC
 70
     2
  9
$DIMTDEC
 70
     2
  9
$DIMALTU
 70
     2
  9
$DIMALTTD
 70
     3
  9
$DIMTXSTY
  7
Standard
  9
$DIMAUNIT
 70
     0
  9
$DIMADEC
 70
     0
  9
$DIMALTRND
 40
0.0
  9
$DIMAZIN
 70
     0
  9
$DIMDSEP
 70
    44
  9
$DIMATFIT
 70
     3
  9
$DIMFRAC
 70
     0
  9
$DIMLDRBLK
  1

  9
$DIMLUNIT
 70
     2
  9
$DIMLWD
 70
    -2
  9
$DIMLWE
 70
    -2
  9
$DIMTMOVE
 70
     0
  9
$DIMFXL
 40
1.0
  9
$DIMFXLON
 70
     0
  9
$DIMJOGANG
 40
0.7853981633974483
  9
$DIMTFILL
 70
     0
  9
$DIMTFILLCLR
 70
     0
  9
$DIMARCSYM
 70
     0
  9
$DIMLTYPE
  6

  9
$DIMLTEX1
  6

  9
$DIMLTEX2
  6

  9
$DIMTXTDIRECTION
 70
     0
  9
$LUNITS
 70
     2
  9
$LUPREC
 70
     4
  9
$SKETCHINC
 40
1.0
  9
$FILLETRAD
 40
10.0
  9
$AUNITS
 70
     0
  9
$AUPREC
 70
     0
  9
$MENU
  1
.
  9
$ELEVATION
 40
0.0
  9
$PELEVATION
 40
0.0
  9
$THICKNESS
 40
0.0
  9
$LIMCHECK
 70
     0
  9
$CHAMFERA
 40
10.0
  9
$CHAMFERB
 40
10.0
  9
$CHAMFERC
 40
20.0
  9
$CHAMFERD
 40
0.0
  9
$SKPOLY
 70
     0
  9
$TDCREATE
 40
2453866.437617407
  9
$TDUCREATE
 40
2453866.395950741
  9
$TDUPDATE
 40
2457837.563973056
  9
$TDUUPDATE
 40
2457837.522306389
  9
$TDINDWG
 40
0.2024422222
  9
$TDUSRTIMER
 40
2457837.520729155
  9
$USRTIMER
 70
     1
  9
$ANGBASE
 50
0.0
  9
$ANGDIR
 70
     0
  9
$PDMODE
 70
     0
  9
$PDSIZE
 40
0.0
  9
$PLINEWID
 40
0.0
  9
$SPLFRAME
 70
     0
  9
$SPLINETYPE
 70
     6
  9
$SPLINESEGS
 70
     8
  9
$HANDSEED
  5
7ED
  9
$SURFTAB1
 70
     6
  9
$SURFTAB2
 70
     6
  9
$SURFTYPE
 70
     6
  9
$SURFU
 70
     6
  9
$SURFV
 70
     6
  9
$UCSBASE
  2

  9
$UCSNAME
  2

  9
$UCSORG
 10
0.0
 20
0.0
 30
0.0
  9
$UCSXDIR
 10
1.0
 20
0.0
 30
0.0
  9
$UCSYDIR
 10
0.0
 20
1.0
 30
0.0
  9
$UCSORTHOREF
  2

  9
$UCSORTHOVIEW
 70
     0
  9
$UCSORGTOP
 10
0.0
 20
0.0
 30
0.0
  9
$UCSORGBOTTOM
 10
0.0
 20
0.0
 30
0.0
  9
$UCSORGLEFT
 10
0.0
 20
0.0
 30
0.0
  9
$UCSORGRIGHT
 10
0.0
 20
0.0
 30
0.0
  9
$UCSORGFRONT
 10
0.0
 20
0.0
 30
0.0
  9
$UCSORGBACK
 10
0.0
 20
0.0
 30
0.0
  9
$PUCSBASE
  2

  9
$PUCSNAME
  2

  9
$PUCSORG
 10
0.0
 20
0.0
 30
0.0
  9
$PUCSXDIR
 10
1.0
 20
0.0
 30
0.0
  9
$PUCSYDIR
 10
0.0
 20
1.0
 30
0.0
  9
$PUCSORTHOREF
  2

  9
$PUCSORTHOVIEW
 70
     0
  9
$PUCSORGTOP
 10
0.0
 20
0.0
 30
0.0
  9
$PUCSORGBOTTOM
 10
0.0
 20
0.0
 30
0.0
  9
$PUCSORGLEFT
 10
0.0
 20
0.0
 30
0.0
  9
$PUCSORGRIGHT
 10
0.0
 20
0.0
 30
0.0
  9
$PUCSORGFRONT
 10
0.0
 20
0.0
 30
0.0
  9
$PUCSORGBACK
 10
0.0
 20
0.0
 30
0.0
  9
$USERI1
 70
     0
  9
$USERI2
 70
     0
  9
$USERI3
 70
     0
  9
$USERI4
 70
     0
  9
$USERI5
 70
     0
  9
$USERR1
 40
0.0
  9
$USERR2
 40
0.0
  9
$USERR3
 40
0.0
  9
$USERR4
 40
0.0
  9
$USERR5
 40
0.0
  9
$WORLDVIEW
 70
     1
  9
$SHADEDGE
 70
     3
  9
$SHADEDIF
 70
    70
  9
$TILEMODE
 70
     0
  9
$MAXACTVP
 70
    64
  9
$PINSBASE
 10
0.0
 20
0.0
 30
0.0
  9
$PLIMCHECK
 70
     0
  9
$PEXTMIN
 10
232.9534537159595
 20
-0.000000053342319
 30
0.0
  9
$PEXTMAX
 10
442.9534537159595
 20
296.9999999466577
 30
0.0
  9
$PLIMMIN
 10
232.9384852524412
 20
-0.0423394215799208
  9
$PLIMMAX
 10
442.9684221794778
 20
296.9999999466576
  9
$UNITMODE
 70
     0
  9
$VISRETAIN
 70
     1
  9
$PLINEGEN
 70
     0
  9
$PSLTSCALE
 70
     1
  9
$TREEDEPTH
 70
  3020
  9
$CMLSTYLE
  2
Standard
  9
$CMLJUST
 70
     0
  9
$CMLSCALE
 40
20.0
  9
$PROXYGRAPHICS
 70
     1
  9
$MEASUREMENT
 70
     1
  9
$CELWEIGHT
370
    -1
  9
$ENDCAPS
280
     0
  9
$JOINSTYLE
280
     0
  9
$LWDISPLAY
290
     0
  9
$INSUNITS
 70
     4
  9
$HYPERLINKBASE
  1

  9
$STYLESHEET
  1

  9
$XEDIT
290
     1
  9
$CEPSNTYPE
380
     0
  9
$PSTYLEMODE
290
     1
  9
$FINGERPRINTGUID
  2
{361B34AB-7CDE-40BF-AA94-934DB803392F}
  9
$VERSIONGUID
  2
{8CA42D05-022B-4A9D-8B10-D7B4830E0418}
  9
$EXTNAMES
290
     1
  9
$PSVPSCALE
 40
0.0
  9
$OLESTARTUP
290
     0
  9
$SORTENTS
280
   127
  9
$INDEXCTL
280
     0
  9
$HIDETEXT
280
     1
  9
$XCLIPFRAME
280
     2
  9
$HALOGAP
280
     0
  9
$OBSCOLOR
 70
   257
  9
$OBSLTYPE
280
     0
  9
$INTERSECTIONDISPLAY
280
     0
  9
$INTERSECTIONCOLOR
 70
   257
  9
$DIMASSOC
280
     2
  9
$PROJECTNAME
  1

  9
$CAMERADISPLAY
290
     0
  9
$LENSLENGTH
 40
50.0
  9
$CAMERAHEIGHT
 40
0.0
  9
$STEPSPERSEC
 40
2.0
  9
$STEPSIZE
 40
6.0
  9
$3DDWFPREC
 40
2.0
  9
$PSOLWIDTH
 40
0.25
  9
$PSOLHEIGHT
 40
4.0
  9
$LOFTANG1
 40
1.570796326794897
  9
$LOFTANG2
 40
1.570796326794897
  9
$LOFTMAG1
 40
0.0
  9
$LOFTMAG2
 40
0.0
  9
$LOFTPARAM
 70
     7
  9
$LOFTNORMALS
280
     1
  9
$LATITUDE
 40
37.795
  9
$LONGITUDE
 40
-122.394
  9
$NORTHDIRECTION
 40
0.0
  9
$TIMEZONE
 70
 -8000
  9
$LIGHTGLYPHDISPLAY
280
     1
  9
$TILEMODELIGHTSYNCH
280
     1
  9
$SOLIDHIST
280
     0
  9
$SHOWHIST
280
     1
  9
$DWFFRAME
280
     2
  9
$DGNFRAME
280
     2
  9
$REALWORLDSCALE
290
     1
  9
$INTERFERECOLOR
 62
   256
  9
$CSHADOW
280
     0
  9
$SHADOWPLANELOCATION
 40
0.0
  0
ENDSEC
  0
SECTION
  2
CLASSES
  0
CLASS
  1
ACDBDICTIONARYWDFLT
  2
AcDbDictionaryWithDefault
  3
ObjectDBX Classes
 90
        0
 91
        4
280
     0
281
     0
  0
CLASS
  1
ACDBPLACEHOLDER
  2
AcDbPlaceHolder
  3
ObjectDBX Classes
 90
        0
 91
        1
280
     0
281
     0
  0
CLASS
  1
LAYOUT
  2
AcDbLayout
  3
ObjectDBX Classes
 90
        0
 91
        1
280
     0
281
     0
  0
CLASS
  1
DICTIONARYVAR
  2
AcDbDictionaryVar
  3
ObjectDBX Classes
 90
        0
 91
        4
280
     0
281
     0
  0
CLASS
  1
VISUALSTYLE
  2
AcDbVisualStyle
  3
ObjectDBX Classes
 90
     4095
 91
        4
280
     0
281
     0
  0
CLASS
  1
SCALE
  2
AcDbScale
  3
ObjectDBX Classes
 90
     1153
 91
        4
280
     0
281
     0
  0
CLASS
  1
MATERIAL
  2
AcDbMaterial
  3
ObjectDBX Classes
 90
     1153
 91
        4
280
     0
281
     0
  0
CLASS
  1
TABLESTYLE
  2
AcDbTableStyle
  3
ObjectDBX Classes
 90
     4095
 91
        4
280
     0
281
     0
  0
CLASS
  1
MLEADERSTYLE
  2
AcDbMLeaderStyle
  3
ACDB_MLEADERSTYLE_CLASS
 90
     4095
 91
        4
280
     0
281
     0
  0
CLASS
  1
SUN
  2
AcDbSun
  3
SCENEOE
 90
     1153
 91
        4
280
     0
281
     0
  0
CLASS
  1
IMAGE
  2
AcDbRasterImage
  3
ISM
 90
      127
 91
        5
280
     0
281
     1
  0
CLASS
  1
IMAGEDEF
  2
AcDbRasterImageDef
  3
ISM
 90
        0
 91
        4
280
     0
281
     0
  0
CLASS
  1
IMAGEDEF_REACTOR
  2
AcDbRasterImageDefReactor
  3
ISM
 90
        1
 91
        4
280
     0
281
     0
  0
CLASS
  1
RASTERVARIABLES
  2
AcDbRasterVariables
  3
ISM
 90
        0
 91
        4
280
     0
281
     0
  0
CLASS
  1
SORTENTSTABLE
  2
AcDbSortentsTable
  3
ObjectDBX Classes
 90
        0
 91
        4
280
     0
281
     0
  0
CLASS
  1
CELLSTYLEMAP
  2
AcDbCellStyleMap
  3
ObjectDBX Classes
 90
     1152
 91
        4
280
     0
281
     0
  0
ENDSEC
  0
SECTION
  2
TABLES
  0
TABLE
  2
VPORT
  5
8
330
0
100
AcDbSymbolTable
 70
     2
  0
VPORT
  5
35D
330
8
100
AcDbSymbolTableRecord
100
AcDbViewportTableRecord
  2
*Active
 70
     0
 10
0.0
 20
0.0
 11
1.0
 21
1.0
 12
705.3415446614935
 22
728.3233139450404
 13
0.0
 23
0.0
 14
10.0
 24
10.0
 15
10.0
 25
10.0
 16
0.0
 26
0.0
 36
1.0
 17
0.0
 27
0.0
 37
0.0
 40
297.0
 41
1.810699588477366
 42
50.0
 43
0.0
 44
0.0
 50
0.0
 51
0.0
 71
    16
 72
   100
 73
     1
 74
     3
 75
     0
 76
     0
 77
     0
 78
     0
281
     0
 65
     1
110
0.0
120
0.0
130
0.0
111
1.0
121
0.0
131
0.0
112
0.0
122
1.0
132
0.0
 79
     0
146
0.0
348
363
 60
     3
 61
     5
292
     0
282
     1
141
0.0
142
0.0
 63
   256
361
3A2
  0
ENDTAB
  0
TABLE
  2
LTYPE
  5
5
330
0
100
AcDbSymbolTable
 70
    46
  0
LTYPE
  5
14
330
5
100
AcDbSymbolTableRecord
100
AcDbLinetypeTableRecord
  2
ByBlock
 70
     0
  3

 72
    65
 73
     0
 40
0.0
  0
LTYPE
  5
15
330
5
100
AcDbSymbolTableRecord
100
AcDbLinetypeTableRecord
  2
ByLayer
 70
     0
  3

 72
    65
 73
     0
 40
0.0
  0
LTYPE
  5
16
330
5
100
AcDbSymbolTableRecord
100
AcDbLinetypeTableRecord
  2
Continuous
 70
     0
  3
Solid line
 72
    65
 73
     0
 40
0.0
  0
LTYPE
  5
2D
330
5
100
AcDbSymbolTableRecord
100
AcDbLinetypeTableRecord
  2
ACAD_ISO02W100
 70
     0
  3
ISO dash __ __ __ __ __ __ __ __ __ __ __ __ __
 72
    65
 73
     2
 40
15.0
 49
12.0
 74
     0
 49
-3.0
 74
     0
  0
LTYPE
  5
2E
330
5
100
AcDbSymbolTableRecord
100
AcDbLinetypeTableRecord
  2
ACAD_ISO03W100
 70
     0
  3
ISO dash space __    __    __    __    __    __
 72
    65
 73
     2
 40
30.0
 49
12.0
 74
     0
 49
-18.0
 74
     0
  0
LTYPE
  5
2F
330
5
100
AcDbSymbolTableRecord
100
AcDbLinetypeTableRecord
  2
ACAD_ISO04W100
 70
     0
  3
ISO long-dash dot ____ . ____ . ____ . ____ . _
 72
    65
 73
     4
 40
30.0
 49
24.0
 74
     0
 49
-3.0
 74
     0
 49
0.0
 74
     0
 49
-3.0
 74
     0
  0
LTYPE
  5
30
330
5
100
AcDbSymbolTableRecord
100
AcDbLinetypeTableRecord
  2
ACAD_ISO05W100
 70
     0
  3
ISO long-dash double-dot ____ .. ____ .. ____ .
 72
    65
 73
     6
 40
33.0
 49
24.0
 74
     0
 49
-3.0
 74
     0
 49
0.0
 74
     0
 49
-3.0
 74
     0
 49
0.0
 74
     0
 49
-3.0
 74
     0
  0
LTYPE
  5
31
330
5
100
AcDbSymbolTableRecord
100
AcDbLinetypeTableRecord
  2
ACAD_ISO06W100
 70
     0
  3
ISO long-dash triple-dot ____ ... ____ ... ____
 72
    65
 73
     8
 40
36.0
 49
24.0
 74
     0
 49
-3.0
 74
     0
 49
0.0
 74
     0
 49
-3.0
 74
     0
 49
0.0
 74
     0
 49
-3.0
 74
     0
 49
0.0
 74
     0
 49
-3.0
 74
     0
  0
LTYPE
  5
32
330
5
100
AcDbSymbolTableRecord
100
AcDbLinetypeTableRecord
  2
ACAD_ISO07W100
 70
     0
  3
ISO dot . . . . . . . . . . . . . . . . . . . .
 72
    65
 73
     2
 40
3.0
 49
0.0
 74
     0
 49
-3.0
 74
     0
  0
LTYPE
  5
33
330
5
100
AcDbSymbolTableRecord
100
AcDbLinetypeTableRecord
  2
ACAD_ISO08W100
 70
     0
  3
ISO long-dash short-dash ____ __ ____ __ ____ _
 72
    65
 73
     4
 40
36.0
 49
24.0
 74
     0
 49
-3.0
 74
     0
 49
6.0
 74
     0
 49
-3.0
 74
     0
  0
LTYPE
  5
34
330
5
100
AcDbSymbolTableRecord
100
AcDbLinetypeTableRecord
  2
ACAD_ISO09W100
 70
     0
  3
ISO long-dash double-short-dash ____ __ __ ____
 72
    65
 73
     6
 40
45.0
 49
24.0
 74
     0
 49
-3.0
 74
     0
 49
6.0
 74
     0
 49
-3.0
 74
     0
 49
6.0
 74
     0
 49
-3.0
 74
     0
  0
LTYPE
  5
35
330
5
100
AcDbSymbolTableRecord
100
AcDbLinetypeTableRecord
  2
ACAD_ISO10W100
 70
     0
  3
ISO dash dot __ . __ . __ . __ . __ . __ . __ .
 72
    65
 73
     4
 40
18.0
 49
12.0
 74
     0
 49
-3.0
 74
     0
 49
0.0
 74
     0
 49
-3.0
 74
     0
  0
LTYPE
  5
36
330
5
100
AcDbSymbolTableRecord
100
AcDbLinetypeTableRecord
  2
ACAD_ISO11W100
 70
     0
  3
ISO double-dash dot __ __ . __ __ . __ __ . __ 
 72
    65
 73
     6
 40
33.0
 49
12.0
 74
     0
 49
-3.0
 74
     0
 49
12.0
 74
     0
 49
-3.0
 74
     0
 49
0.0
 74
     0
 49
-3.0
 74
     0
  0
LTYPE
  5
37
330
5
100
AcDbSymbolTableRecord
100
AcDbLinetypeTableRecord
  2
ACAD_ISO12W100
 70
     0
  3
ISO dash double-dot __ . . __ . . __ . . __ . .
 72
    65
 73
     6
 40
21.0
 49
12.0
 74
     0
 49
-3.0
 74
     0
 49
0.0
 74
     0
 49
-3.0
 74
     0
 49
0.0
 74
     0
 49
-3.0
 74
     0
  0
LTYPE
  5
38
330
5
100
AcDbSymbolTableRecord
100
AcDbLinetypeTableRecord
  2
ACAD_ISO13W100
 70
     0
  3
ISO double-dash double-dot __ __ . . __ __ . . 
 72
    65
 73
     8
 40
36.0
 49
12.0
 74
     0
 49
-3.0
 74
     0
 49
12.0
 74
     0
 49
-3.0
 74
     0
 49
0.0
 74
     0
 49
-3.0
 74
     0
 49
0.0
 74
     0
 49
-3.0
 74
     0
  0
LTYPE
  5
39
330
5
100
AcDbSymbolTableRecord
100
AcDbLinetypeTableRecord
  2
ACAD_ISO14W100
 70
     0
  3
ISO dash triple-dot __ . . . __ . . . __ . . . 
 72
    65
 73
     8
 40
24.0
 49
12.0
 74
     0
 49
-3.0
 74
     0
 49
0.0
 74
     0
 49
-3.0
 74
     0
 49
0.0
 74
     0
 49
-3.0
 74
     0
 49
0.0
 74
     0
 49
-3.0
 74
     0
  0
LTYPE
  5
3A
330
5
100
AcDbSymbolTableRecord
100
AcDbLinetypeTableRecord
  2
ACAD_ISO15W100
 70
     0
  3
ISO double-dash triple-dot __ __ . . . __ __ . 
 72
    65
 73
    10
 40
39.0
 49
12.0
 74
     0
 49
-3.0
 74
     0
 49
12.0
 74
     0
 49
-3.0
 74
     0
 49
0.0
 74
     0
 49
-3.0
 74
     0
 49
0.0
 74
     0
 49
-3.0
 74
     0
 49
0.0
 74
     0
 49
-3.0
 74
     0
  0
LTYPE
  5
3B
330
5
100
AcDbSymbolTableRecord
100
AcDbLinetypeTableRecord
  2
BATTING
 70
     0
  3
Batting SSSSSSSSSSSSSSSSSSSSSSSSSSSSSSSSSSSSSSS
 72
    65
 73
     4
 40
10.16254
 49
0.00254
 74
     0
 49
-2.54
 74
     4
 75
   134
340
2C
 46
2.54
 50
0.0
 44
-2.54
 45
0.0
 49
-5.08
 74
     4
 75
   134
340
2C
 46
2.54
 50
180.0
 44
2.54
 45
0.0
 49
-2.54
 74
     0
  0
LTYPE
  5
3C
330
5
100
AcDbSymbolTableRecord
100
AcDbLinetypeTableRecord
  2
BORDER
 70
     0
  3
Border __ __ . __ __ . __ __ . __ __ . __ __ .
 72
    65
 73
     6
 40
44.45
 49
12.7
 74
     0
 49
-6.35
 74
     0
 49
12.7
 74
     0
 49
-6.35
 74
     0
 49
0.0
 74
     0
 49
-6.35
 74
     0
  0
LTYPE
  5
3D
330
5
100
AcDbSymbolTableRecord
100
AcDbLinetypeTableRecord
  2
BORDER2
 70
     0
  3
Border (.5x) __.__.__.__.__.__.__.__.__.__.__.
 72
    65
 73
     6
 40
22.225
 49
6.35
 74
     0
 49
-3.175
 74
     0
 49
6.35
 74
     0
 49
-3.175
 74
     0
 49
0.0
 74
     0
 49
-3.175
 74
     0
  0
LTYPE
  5
3E
330
5
100
AcDbSymbolTableRecord
100
AcDbLinetypeTableRecord
  2
BORDERX2
 70
     0
  3
Border (2x) ____  ____  .  ____  ____  .  ___
 72
    65
 73
     6
 40
88.9
 49
25.4
 74
     0
 49
-12.7
 74
     0
 49
25.4
 74
     0
 49
-12.7
 74
     0
 49
0.0
 74
     0
 49
-12.7
 74
     0
  0
LTYPE
  5
3F
330
5
100
AcDbSymbolTableRecord
100
AcDbLinetypeTableRecord
  2
CENTER
 70
     0
  3
Center ____ _ ____ _ ____ _ ____ _ ____ _ ____
 72
    65
 73
     4
 40
50.8
 49
31.75
 74
     0
 49
-6.35
 74
     0
 49
6.35
 74
     0
 49
-6.35
 74
     0
  0
LTYPE
  5
40
330
5
100
AcDbSymbolTableRecord
100
AcDbLinetypeTableRecord
  2
CENTER2
 70
     0
  3
Center (.5x) ___ _ ___ _ ___ _ ___ _ ___ _ ___
 72
    65
 73
     4
 40
28.575
 49
19.05
 74
     0
 49
-3.175
 74
     0
 49
3.175
 74
     0
 49
-3.175
 74
     0
  0
LTYPE
  5
41
330
5
100
AcDbSymbolTableRecord
100
AcDbLinetypeTableRecord
  2
CENTERX2
 70
     0
  3
Center (2x) ________  __  ________  __  _____
 72
    65
 73
     4
 40
101.6
 49
63.5
 74
     0
 49
-12.7
 74
     0
 49
12.7
 74
     0
 49
-12.7
 74
     0
  0
LTYPE
  5
42
330
5
100
AcDbSymbolTableRecord
100
AcDbLinetypeTableRecord
  2
DASHDOT
 70
     0
  3
Dash dot __ . __ . __ . __ . __ . __ . __ . __
 72
    65
 73
     4
 40
25.4
 49
12.7
 74
     0
 49
-6.35
 74
     0
 49
0.0
 74
     0
 49
-6.35
 74
     0
  0
LTYPE
  5
43
330
5
100
AcDbSymbolTableRecord
100
AcDbLinetypeTableRecord
  2
DASHDOT2
 70
     0
  3
Dash dot (.5x) _._._._._._._._._._._._._._._.
 72
    65
 73
     4
 40
12.7
 49
6.35
 74
     0
 49
-3.175
 74
     0
 49
0.0
 74
     0
 49
-3.175
 74
     0
  0
LTYPE
  5
44
330
5
100
AcDbSymbolTableRecord
100
AcDbLinetypeTableRecord
  2
DASHDOTX2
 70
     0
  3
Dash dot (2x) ____  .  ____  .  ____  .  ___
 72
    65
 73
     4
 40
50.8
 49
25.4
 74
     0
 49
-12.7
 74
     0
 49
0.0
 74
     0
 49
-12.7
 74
     0
  0
LTYPE
  5
45
330
5
100
AcDbSymbolTableRecord
100
AcDbLinetypeTableRecord
  2
DASHED
 70
     0
  3
Dashed __ __ __ __ __ __ __ __ __ __ __ __ __ _
 72
    65
 73
     2
 40
19.05
 49
12.7
 74
     0
 49
-6.35
 74
     0
  0
LTYPE
  5
46
330
5
100
AcDbSymbolTableRecord
100
AcDbLinetypeTableRecord
  2
DASHED2
 70
     0
  3
Dashed (.5x) _ _ _ _ _ _ _ _ _ _ _ _ _ _ _ _ _
 72
    65
 73
     2
 40
9.524999999999999
 49
6.35
 74
     0
 49
-3.175
 74
     0
  0
LTYPE
  5
47
330
5
100
AcDbSymbolTableRecord
100
AcDbLinetypeTableRecord
  2
DASHEDX2
 70
     0
  3
Dashed (2x) ____  ____  ____  ____  ____  ___
 72
    65
 73
     2
 40
38.09999999999999
 49
25.4
 74
     0
 49
-12.7
 74
     0
  0
LTYPE
  5
48
330
5
100
AcDbSymbolTableRecord
100
AcDbLinetypeTableRecord
  2
DIVIDE
 70
     0
  3
Divide ____ . . ____ . . ____ . . ____ . . ____
 72
    65
 73
     6
 40
31.75
 49
12.7
 74
     0
 49
-6.35
 74
     0
 49
0.0
 74
     0
 49
-6.35
 74
     0
 49
0.0
 74
     0
 49
-6.35
 74
     0
  0
LTYPE
  5
49
330
5
100
AcDbSymbolTableRecord
100
AcDbLinetypeTableRecord
  2
DIVIDE2
 70
     0
  3
Divide (.5x) __..__..__..__..__..__..__..__.._
 72
    65
 73
     6
 40
15.875
 49
6.35
 74
     0
 49
-3.175
 74
     0
 49
0.0
 74
     0
 49
-3.175
 74
     0
 49
0.0
 74
     0
 49
-3.175
 74
     0
  0
LTYPE
  5
4A
330
5
100
AcDbSymbolTableRecord
100
AcDbLinetypeTableRecord
  2
DIVIDEX2
 70
     0
  3
Divide (2x) ________  .  .  ________  .  .  _
 72
    65
 73
     6
 40
63.49999999999999
 49
25.4
 74
     0
 49
-12.7
 74
     0
 49
0.0
 74
     0
 49
-12.7
 74
     0
 49
0.0
 74
     0
 49
-12.7
 74
     0
  0
LTYPE
  5
4B
330
5
100
AcDbSymbolTableRecord
100
AcDbLinetypeTableRecord
  2
DOT
 70
     0
  3
Dot . . . . . . . . . . . . . . . . . . . . . .
 72
    65
 73
     2
 40
6.35
 49
0.0
 74
     0
 49
-6.35
 74
     0
  0
LTYPE
  5
4C
330
5
100
AcDbSymbolTableRecord
100
AcDbLinetypeTableRecord
  2
DOT2
 70
     0
  3
Dot (.5x) .....................................
 72
    65
 73
     2
 40
3.175
 49
0.0
 74
     0
 49
-3.175
 74
     0
  0
LTYPE
  5
4D
330
5
100
AcDbSymbolTableRecord
100
AcDbLinetypeTableRecord
  2
DOTX2
 70
     0
  3
Dot (2x) .  .  .  .  .  .  .  .  .  .  .  .  . 
 72
    65
 73
     2
 40
12.7
 49
0.0
 74
     0
 49
-12.7
 74
     0
  0
LTYPE
  5
4E
330
5
100
AcDbSymbolTableRecord
100
AcDbLinetypeTableRecord
  2
FENCELINE1
 70
     0
  3
Fenceline circle ----0-----0----0-----0----0---
 72
    65
 73
     4
 40
36.83
 49
6.35
 74
     0
 49
-2.54
 74
     4
 75
   133
340
2C
 46
2.54
 50
0.0
 44
-2.54
 45
0.0
 49
-2.54
 74
     0
 49
25.4
 74
     0
  0
LTYPE
  5
4F
330
5
100
AcDbSymbolTableRecord
100
AcDbLinetypeTableRecord
  2
FENCELINE2
 70
     0
  3
Fenceline square ----[]-----[]----[]-----[]----
 72
    65
 73
     4
 40
36.83
 49
6.35
 74
     0
 49
-2.54
 74
     4
 75
   132
340
2C
 46
2.54
 50
0.0
 44
-2.54
 45
0.0
 49
-2.54
 74
     0
 49
25.4
 74
     0
  0
LTYPE
  5
50
330
5
100
AcDbSymbolTableRecord
100
AcDbLinetypeTableRecord
  2
GAS_LINE
 70
     0
  3
Gas line ----GAS----GAS----GAS----GAS----GAS---
 72
    65
 73
     3
 40
24.13
 49
12.7
 74
     0
 49
-5.08
 74
     2
 75
     0
340
11
 46
2.54
 50
0.0
 44
-2.54
 45
-1.27
  9
GAS
 49
-6.35
 74
     0
  0
LTYPE
  5
51
330
5
100
AcDbSymbolTableRecord
100
AcDbLinetypeTableRecord
  2
HIDDEN
 70
     0
  3
Hidden __ __ __ __ __ __ __ __ __ __ __ __ __ _
 72
    65
 73
     2
 40
9.524999999999999
 49
6.35
 74
     0
 49
-3.175
 74
     0
  0
LTYPE
  5
52
330
5
100
AcDbSymbolTableRecord
100
AcDbLinetypeTableRecord
  2
HIDDEN2
 70
     0
  3
Hidden (.5x) _ _ _ _ _ _ _ _ _ _ _ _ _ _ _ _ _
 72
    65
 73
     2
 40
4.762499999999999
 49
3.175
 74
     0
 49
-1.5875
 74
     0
  0
LTYPE
  5
53
330
5
100
AcDbSymbolTableRecord
100
AcDbLinetypeTableRecord
  2
HIDDENX2
 70
     0
  3
Hidden (2x) ____ ____ ____ ____ ____ ____ ____
 72
    65
 73
     2
 40
19.05
 49
12.7
 74
     0
 49
-6.35
 74
     0
  0
LTYPE
  5
54
330
5
100
AcDbSymbolTableRecord
100
AcDbLinetypeTableRecord
  2
HOT_WATER_SUPPLY
 70
     0
  3
Hot water supply ---- HW ---- HW ---- HW ----
 72
    65
 73
     3
 40
22.86
 49
12.7
 74
     0
 49
-5.08
 74
     2
 75
     0
340
11
 46
2.54
 50
0.0
 44
-2.54
 45
-1.27
  9
HW
 49
-5.08
 74
     0
  0
LTYPE
  5
55
330
5
100
AcDbSymbolTableRecord
100
AcDbLinetypeTableRecord
  2
PHANTOM
 70
     0
  3
Phantom ______  __  __  ______  __  __  ______
 72
    65
 73
     6
 40
63.5
 49
31.75
 74
     0
 49
-6.35
 74
     0
 49
6.35
 74
     0
 49
-6.35
 74
     0
 49
6.35
 74
     0
 49
-6.35
 74
     0
  0
LTYPE
  5
56
330
5
100
AcDbSymbolTableRecord
100
AcDbLinetypeTableRecord
  2
PHANTOM2
 70
     0
  3
Phantom (.5x) ___ _ _ ___ _ _ ___ _ _ ___ _ _
 72
    65
 73
     6
 40
31.75
 49
15.875
 74
     0
 49
-3.175
 74
     0
 49
3.175
 74
     0
 49
-3.175
 74
     0
 49
3.175
 74
     0
 49
-3.175
 74
     0
  0
LTYPE
  5
57
330
5
100
AcDbSymbolTableRecord
100
AcDbLinetypeTableRecord
  2
PHANTOMX2
 70
     0
  3
Phantom (2x) ____________    ____    ____   _
 72
    65
 73
     6
 40
127.0
 49
63.5
 74
     0
 49
-12.7
 74
     0
 49
12.7
 74
     0
 49
-12.7
 74
     0
 49
12.7
 74
     0
 49
-12.7
 74
     0
  0
LTYPE
  5
58
330
5
100
AcDbSymbolTableRecord
100
AcDbLinetypeTableRecord
  2
TRACKS
 70
     0
  3
Tracks -|-|-|-|-|-|-|-|-|-|-|-|-|-|-|-|-|-|-|-|
 72
    65
 73
     2
 40
7.62
 49
3.81
 74
     4
 75
   130
340
2C
 46
6.35
 50
0.0
 44
0.0
 45
0.0
 49
3.81
 74
     0
  0
LTYPE
  5
59
330
5
100
AcDbSymbolTableRecord
100
AcDbLinetypeTableRecord
  2
ZIGZAG
 70
     0
  3
Zig zag /\/\/\/\/\/\/\/\/\/\/\/\/\/\/\/\/\/\/\/
 72
    65
 73
     4
 40
20.32254
 49
0.00254
 74
     0
 49
-5.08
 74
     4
 75
   131
340
2C
 46
5.08
 50
0.0
 44
-5.08
 45
0.0
 49
-10.16
 74
     4
 75
   131
340
2C
 46
5.08
 50
180.0
 44
5.08
 45
0.0
 49
-5.08
 74
     0
  0
ENDTAB
  0
TABLE
  2
LAYER
  5
2
102
{ACAD_XDICTIONARY
360
46A
102
}
330
0
100
AcDbSymbolTable
 70
    21
  0
LAYER
  5
10
330
2
100
AcDbSymbolTableRecord
100
AcDbLayerTableRecord
  2
0
 70
     0
 62
     7
  6
Continuous
370
    -3
390
F
347
39C
  0
LAYER
  5
80
330
2
100
AcDbSymbolTableRecord
100
AcDbLayerTableRecord
  2
A--L1---
 70
     0
 62
     7
  6
Continuous
370
    -3
390
F
347
39C
  0
LAYER
  5
F4
330
2
100
AcDbSymbolTableRecord
100
AcDbLayerTableRecord
  2
A--T108-
 70
     0
 62
     7
  6
Continuous
370
    -3
390
F
347
39C
  0
LAYER
  5
17F
330
2
100
AcDbSymbolTableRecord
100
AcDbLayerTableRecord
  2
A--L107-
 70
     0
 62
     7
  6
Continuous
370
    -3
390
F
347
39C
  0
LAYER
  5
182
330
2
100
AcDbSymbolTableRecord
100
AcDbLayerTableRecord
  2
A--T1---
 70
     0
 62
     7
  6
Continuous
370
    -3
390
F
347
39C
  0
LAYER
  5
185
330
2
100
AcDbSymbolTableRecord
100
AcDbLayerTableRecord
  2
A--L98--
 70
     0
 62
     7
  6
Continuous
370
    -3
390
F
347
39C
  0
LAYER
  5
3A9
330
2
100
AcDbSymbolTableRecord
100
AcDbLayerTableRecord
  2
Defpoints
 70
     0
 62
     7
  6
Continuous
290
     0
370
    -3
390
F
347
39C
  0
LAYER
  5
3B8
330
2
100
AcDbSymbolTableRecord
100
AcDbLayerTableRecord
  2
GIP-Planrahmen
 70
     0
 62
     7
  6
Continuous
370
    -3
390
F
347
39C
1001
AcAecLayerStandard
1000

1000

  0
LAYER
  5
3C1
330
2
100
AcDbSymbolTableRecord
100
AcDbLayerTableRecord
  2
GIP-Ansichtsfenster
 70
     0
 62
   253
  6
Continuous
290
     0
370
    35
390
F
347
39C
1001
AcAecLayerStandard
1000

1000

1001
AcCmTransparency
1071
        0
  0
LAYER
  5
3CB
330
2
100
AcDbSymbolTableRecord
100
AcDbLayerTableRecord
  2
RP_Beschriftung
 70
     0
 62
     7
  6
Continuous
370
    15
390
F
347
39C
1001
AcAecLayerStandard
1000

1000

1001
AcCmTransparency
1071
        0
  0
LAYER
  5
416
330
2
100
AcDbSymbolTableRecord
100
AcDbLayerTableRecord
  2
RP_breathable membrane
 70
     0
 62
     7
  6
DASHED2
370
    25
390
F
347
39C
1001
AcAecLayerStandard
1000

1000

1001
AcCmTransparency
1071
        0
  0
LAYER
  5
41B
330
2
100
AcDbSymbolTableRecord
100
AcDbLayerTableRecord
  2
RP_Concrete
 70
     0
 62
   251
  6
Continuous
370
    15
390
F
347
39C
1001
AcAecLayerStandard
1000

1000

1001
AcCmTransparency
1071
        0
  0
LAYER
  5
41F
330
2
100
AcDbSymbolTableRecord
100
AcDbLayerTableRecord
  2
RP_EPDM
 70
     0
 62
   250
  6
Continuous
370
    15
390
F
347
39C
1001
AcAecLayerStandard
1000

1000

1001
AcCmTransparency
1071
        0
  0
LAYER
  5
423
330
2
100
AcDbSymbolTableRecord
100
AcDbLayerTableRecord
  2
RP_Hilfslinie
 70
     0
 62
    32
  6
DASHED2
370
    15
390
F
347
39C
1001
AcAecLayerStandard
1000

1000

1001
AcCmTransparency
1071
        0
  0
LAYER
  5
428
330
2
100
AcDbSymbolTableRecord
100
AcDbLayerTableRecord
  2
RP_Platte
 70
     0
 62
   251
  6
Continuous
370
    15
390
F
347
39C
1001
AcAecLayerStandard
1000

1000

1001
AcCmTransparency
1071
        0
  0
LAYER
  5
42C
330
2
100
AcDbSymbolTableRecord
100
AcDbLayerTableRecord
  2
RP_Wärmedämmung
 70
     0
 62
    53
  6
Continuous
370
    15
390
F
347
39C
1001
AcAecLayerStandard
1000

1000
Volllinie Farbe 7
1001
AcCmTransparency
1071
        0
  0
LAYER
  5
430
330
2
100
AcDbSymbolTableRecord
100
AcDbLayerTableRecord
  2
RP_wooden substructure
 70
     0
 62
    17
  6
Continuous
370
    15
390
F
347
39C
1001
AcAecLayerStandard
1000

1000

1001
AcCmTransparency
1071
        0
  0
LAYER
  5
522
330
2
100
AcDbSymbolTableRecord
100
AcDbLayerTableRecord
  2
RP-Profile D
 70
     0
 62
   178
  6
Continuous
370
    15
390
F
347
39C
1001
AcAecLayerStandard
1000

1000

1001
AcCmTransparency
1071
        0
  0
ENDTAB
  0
TABLE
  2
STYLE
  5
3
330
0
100
AcDbSymbolTable
 70
     6
  0
STYLE
  5
11
330
3
100
AcDbSymbolTableRecord
100
AcDbTextStyleTableRecord
  2
Standard
 70
     0
 40
0.0
 41
1.0
 50
0.0
 71
     0
 42
2.5
  3
txt
  4

  0
STYLE
  5
2C
330
3
100
AcDbSymbolTableRecord
100
AcDbTextStyleTableRecord
  2

 70
     1
 40
0.0
 41
1.0
 50
0.0
 71
     0
 42
2.5
  3
ltypeshp.shx
  4

  0
STYLE
  5
F5
330
3
100
AcDbSymbolTableRecord
100
AcDbTextStyleTableRecord
  2
TSA-0_18
 70
     0
 40
0.0
 41
1.0
 50
0.0
 71
     0
 42
2.5
  3
TXT.SHX
  4

  0
STYLE
  5
183
330
3
100
AcDbSymbolTableRecord
100
AcDbTextStyleTableRecord
  2
TSA-7
 70
     0
 40
0.0
 41
1.0
 50
0.0
 71
     0
 42
2.5
  3
TXT.SHX
  4

  0
STYLE
  5
3CC
330
3
100
AcDbSymbolTableRecord
100
AcDbTextStyleTableRecord
  2
COMPLEX
 70
     0
 40
0.0
 41
1.0
 50
0.0
 71
     0
 42
2.5
  3
8complex
  4

  0
STYLE
  5
472
330
3
100
AcDbSymbolTableRecord
100
AcDbTextStyleTableRecord
  2
DYN_DIM
 70
     0
 40
0.0
 41
1.0
 50
0.0
 71
     0
 42
2.5
  3
txt
  4

  0
ENDTAB
  0
TABLE
  2
VIEW
  5
6
330
0
100
AcDbSymbolTable
 70
     0
  0
ENDTAB
  0
TABLE
  2
UCS
  5
7
330
0
100
AcDbSymbolTable
 70
     0
  0
ENDTAB
  0
TABLE
  2
APPID
  5
9
330
0
100
AcDbSymbolTable
 70
     9
  0
APPID
  5
12
330
9
100
AcDbSymbolTableRecord
100
AcDbRegAppTableRecord
  2
ACAD
 70
     0
  0
APPID
  5
5F
330
9
100
AcDbSymbolTableRecord
100
AcDbRegAppTableRecord
  2
TSA_
 70
     0
  0
APPID
  5
60
330
9
100
AcDbSymbolTableRecord
100
AcDbRegAppTableRecord
  2
ZOEKSNOEK
 70
     0
  0
APPID
  5
3AB
330
9
100
AcDbSymbolTableRecord
100
AcDbRegAppTableRecord
  2
ACAD_PSEXT
 70
     0
  0
APPID
  5
3AC
330
9
100
AcDbSymbolTableRecord
100
AcDbRegAppTableRecord
  2
AcadAnnoAV
 70
     0
  0
APPID
  5
3AD
330
9
100
AcDbSymbolTableRecord
100
AcDbRegAppTableRecord
  2
PLOTTRANSPARENCY
 70
     0
  0
APPID
  5
3BA
330
9
100
AcDbSymbolTableRecord
100
AcDbRegAppTableRecord
  2
AcAecLayerStandard
 70
     0
  0
APPID
  5
3C2
330
9
100
AcDbSymbolTableRecord
100
AcDbRegAppTableRecord
  2
AcCmTransparency
 70
     0
  0
APPID
  5
3D2
330
9
100
AcDbSymbolTableRecord
100
AcDbRegAppTableRecord
  2
AcadAnnotative
 70
     0
  0
ENDTAB
  0
TABLE
  2
DIMSTYLE
  5
A
330
0
100
AcDbSymbolTable
 70
     1
100
AcDbDimStyleTable
  0
DIMSTYLE
105
27
330
A
100
AcDbSymbolTableRecord
100
AcDbDimStyleTableRecord
  2
ISO-25
 70
     0
 41
2.5
 42
0.625
 43
3.75
 44
1.25
 73
     0
 74
     0
 77
     1
 78
     8
140
2.5
141
2.5
143
0.03937007874016
147
0.625
171
     3
172
     1
178
     0
271
     2
272
     2
274
     3
278
    44
283
     0
284
     8
340
11
  0
ENDTAB
  0
TABLE
  2
BLOCK_RECORD
  5
1
330
0
100
AcDbSymbolTable
 70
    74
  0
BLOCK_RECORD
  5
1F
102
{ACAD_XDICTIONARY
360
434
102
}
330
1
100
AcDbSymbolTableRecord
100
AcDbBlockTableRecord
  2
*Model_Space
340
22
 70
     0
280
     1
281
     0
  0
BLOCK_RECORD
  5
748
102
{ACAD_XDICTIONARY
360
76C
102
}
330
1
100
AcDbSymbolTableRecord
100
AcDbBlockTableRecord
  2
*Paper_Space
340
744
 70
     0
280
     1
281
     0
  0
BLOCK_RECORD
  5
1E5
330
1
100
AcDbSymbolTableRecord
100
AcDbBlockTableRecord
  2
MZSD208$2
340
0
 70
     0
280
     1
281
     0
  0
BLOCK_RECORD
  5
1E6
330
1
100
AcDbSymbolTableRecord
100
AcDbBlockTableRecord
  2
MDET1-208$2
340
0
102
{BLKREFS
331
211
102
}
 70
     0
280
     1
281
     0
  0
BLOCK_RECORD
  5
1E7
330
1
100
AcDbSymbolTableRecord
100
AcDbBlockTableRecord
  2
MSCHROEF$2
340
0
102
{BLKREFS
331
1EB
331
1EC
331
3F8
331
3F9
102
}
 70
     0
280
     1
281
     0
  0
BLOCK_RECORD
  5
1ED
330
1
100
AcDbSymbolTableRecord
100
AcDbBlockTableRecord
  2
MBOLBENAM$2
340
0
102
{BLKREFS
331
1F7
331
1F8
331
3FA
331
3FB
102
}
 70
     0
280
     1
281
     0
  0
BLOCK_RECORD
  5
1EE
330
1
100
AcDbSymbolTableRecord
100
AcDbBlockTableRecord
  2
M2DUM$2
340
0
102
{BLKREFS
331
1F9
331
1FC
331
200
331
202
331
203
331
207
331
20B
331
20D
331
1F1
331
3FC
331
3FF
331
403
331
405
331
406
331
40A
331
40E
331
410
102
}
 70
     0
280
     1
281
     0
  0
BLOCK_RECORD
  5
219
330
1
100
AcDbSymbolTableRecord
100
AcDbBlockTableRecord
  2
NZSD208$2
340
0
 70
     0
280
     1
281
     0
  0
BLOCK_RECORD
  5
21A
330
1
100
AcDbSymbolTableRecord
100
AcDbBlockTableRecord
  2
NDET1-208$2
340
0
102
{BLKREFS
331
245
102
}
 70
     0
280
     1
281
     0
  0
BLOCK_RECORD
  5
21B
330
1
100
AcDbSymbolTableRecord
100
AcDbBlockTableRecord
  2
NSCHROEF$2
340
0
102
{BLKREFS
331
21F
331
220
102
}
 70
     0
280
     1
281
     0
  0
BLOCK_RECORD
  5
221
330
1
100
AcDbSymbolTableRecord
100
AcDbBlockTableRecord
  2
NBOLBENAM$2
340
0
102
{BLKREFS
331
22B
331
22C
102
}
 70
     0
280
     1
281
     0
  0
BLOCK_RECORD
  5
224
330
1
100
AcDbSymbolTableRecord
100
AcDbBlockTableRecord
  2
N2DUM$2
340
0
102
{BLKREFS
331
22D
331
232
331
234
331
236
331
237
331
23D
331
23F
331
241
331
227
102
}
 70
     0
280
     1
281
     0
  0
BLOCK_RECORD
  5
24D
330
1
100
AcDbSymbolTableRecord
100
AcDbBlockTableRecord
  2
HZSD208$2
340
0
 70
     0
280
     1
281
     0
  0
BLOCK_RECORD
  5
24E
330
1
100
AcDbSymbolTableRecord
100
AcDbBlockTableRecord
  2
HDET1-208$2
340
0
102
{BLKREFS
331
27D
102
}
 70
     0
280
     1
281
     0
  0
BLOCK_RECORD
  5
24F
330
1
100
AcDbSymbolTableRecord
100
AcDbBlockTableRecord
  2
HSCHROEF$2
340
0
102
{BLKREFS
331
253
331
254
102
}
 70
     0
280
     1
281
     0
  0
BLOCK_RECORD
  5
255
330
1
100
AcDbSymbolTableRecord
100
AcDbBlockTableRecord
  2
HBOLBENAM$2
340
0
102
{BLKREFS
331
25F
331
260
102
}
 70
     0
280
     1
281
     0
  0
BLOCK_RECORD
  5
258
330
1
100
AcDbSymbolTableRecord
100
AcDbBlockTableRecord
  2
H2DUM$2
340
0
102
{BLKREFS
331
263
331
268
331
26C
331
26E
331
26F
331
275
331
277
331
279
331
25B
102
}
 70
     0
280
     1
281
     0
  0
BLOCK_RECORD
  5
285
330
1
100
AcDbSymbolTableRecord
100
AcDbBlockTableRecord
  2
WZSD208$2
340
0
 70
     0
280
     1
281
     0
  0
BLOCK_RECORD
  5
286
330
1
100
AcDbSymbolTableRecord
100
AcDbBlockTableRecord
  2
WDET1-208$2
340
0
102
{BLKREFS
331
2B9
102
}
 70
     0
280
     1
281
     0
  0
BLOCK_RECORD
  5
287
330
1
100
AcDbSymbolTableRecord
100
AcDbBlockTableRecord
  2
WSCHROEF$2
340
0
102
{BLKREFS
331
28B
331
28C
102
}
 70
     0
280
     1
281
     0
  0
BLOCK_RECORD
  5
28D
330
1
100
AcDbSymbolTableRecord
100
AcDbBlockTableRecord
  2
WBOLBENAM$2
340
0
102
{BLKREFS
331
297
331
298
102
}
 70
     0
280
     1
281
     0
  0
BLOCK_RECORD
  5
290
330
1
100
AcDbSymbolTableRecord
100
AcDbBlockTableRecord
  2
W2DUM$2
340
0
102
{BLKREFS
331
29B
331
2A0
331
2A4
331
2A6
331
2A7
331
2AD
331
2B1
331
2B5
331
293
102
}
 70
     0
280
     1
281
     0
  0
BLOCK_RECORD
  5
2C1
330
1
100
AcDbSymbolTableRecord
100
AcDbBlockTableRecord
  2
BZSD208$2
340
0
 70
     0
280
     1
281
     0
  0
BLOCK_RECORD
  5
2C2
330
1
100
AcDbSymbolTableRecord
100
AcDbBlockTableRecord
  2
BDET1-208$2
340
0
102
{BLKREFS
331
304
102
}
 70
     0
280
     1
281
     0
  0
BLOCK_RECORD
  5
2C3
330
1
100
AcDbSymbolTableRecord
100
AcDbBlockTableRecord
  2
BSCHROEF$2
340
0
102
{BLKREFS
331
2C7
331
2C9
102
}
 70
     0
280
     1
281
     0
  0
BLOCK_RECORD
  5
2CE
330
1
100
AcDbSymbolTableRecord
100
AcDbBlockTableRecord
  2
BBOLBENAM$2
340
0
102
{BLKREFS
331
2D8
331
2D9
102
}
 70
     0
280
     1
281
     0
  0
BLOCK_RECORD
  5
2D1
330
1
100
AcDbSymbolTableRecord
100
AcDbBlockTableRecord
  2
B2DUM$2
340
0
102
{BLKREFS
331
2DC
331
2E1
331
2E5
331
2EB
331
2F1
331
2F8
331
2FC
331
300
331
2D4
102
}
 70
     0
280
     1
281
     0
  0
BLOCK_RECORD
  5
30C
330
1
100
AcDbSymbolTableRecord
100
AcDbBlockTableRecord
  2
DZSD208$2
340
0
 70
     0
280
     1
281
     0
  0
BLOCK_RECORD
  5
30D
330
1
100
AcDbSymbolTableRecord
100
AcDbBlockTableRecord
  2
DDET1-208$2
340
0
102
{BLKREFS
331
34F
102
}
 70
     0
280
     1
281
     0
  0
BLOCK_RECORD
  5
30E
330
1
100
AcDbSymbolTableRecord
100
AcDbBlockTableRecord
  2
DSCHROEF$2
340
0
102
{BLKREFS
331
312
331
314
102
}
 70
     0
280
     1
281
     0
  0
BLOCK_RECORD
  5
319
330
1
100
AcDbSymbolTableRecord
100
AcDbBlockTableRecord
  2
DBOLBENAM$2
340
0
102
{BLKREFS
331
323
331
324
102
}
 70
     0
280
     1
281
     0
  0
BLOCK_RECORD
  5
31C
330
1
100
AcDbSymbolTableRecord
100
AcDbBlockTableRecord
  2
D2DUM$2
340
0
102
{BLKREFS
331
327
331
32C
331
330
331
336
331
33C
331
343
331
347
331
34B
331
31F
102
}
 70
     0
280
     1
281
     0
  0
BLOCK_RECORD
  5
1B
330
1
100
AcDbSymbolTableRecord
100
AcDbBlockTableRecord
  2
*Paper_Space73
340
1E
 70
     0
280
     1
281
     0
  0
ENDTAB
  0
ENDSEC
  0
SECTION
  2
BLOCKS
  0
BLOCK
  5
20
330
1F
100
AcDbEntity
  8
0
100
AcDbBlockBegin
  2
*Model_Space
 70
     0
 10
0.0
 20
0.0
 30
0.0
  3
*Model_Space
  1

  0
ENDBLK
  5
21
330
1F
100
AcDbEntity
  8
0
100
AcDbBlockEnd
  0
BLOCK
  5
749
330
748
100
AcDbEntity
 67
     1
  8
0
100
AcDbBlockBegin
  2
*Paper_Space
 70
     0
 10
0.0
 20
0.0
 30
0.0
  3
*Paper_Space
  1

  0
ENDBLK
  5
74A
330
748
100
AcDbEntity
 67
     1
  8
0
100
AcDbBlockEnd
  0
BLOCK
  5
217
330
1E5
100
AcDbEntity
  8
0
100
AcDbBlockBegin
  2
MZSD208$2
 70
     0
 10
0.0
 20
0.0
 30
0.0
  3
MZSD208$2
  1

  0
INSERT
  5
211
330
1E5
100
AcDbEntity
  8
A--L1---
100
AcDbBlockReference
  2
MDET1-208$2
 10
335.0
 20
607.5
 30
0.0
  0
LWPOLYLINE
  5
212
330
1E5
100
AcDbEntity
  8
A--L107-
  6
Continuous
 62
     1
 48
400.0
100
AcDbPolyline
 90
        2
 70
     0
 43
0.0
 10
1000.0
 20
295.0
 10
100.0
 20
295.0
1001
TSA_
1071
        1
1071
        2
1071
        8
1071
      255
1071
        0
1004

1040
0.0
1071
        1
  0
LWPOLYLINE
  5
213
330
1E5
100
AcDbEntity
  8
A--L107-
  6
Continuous
 62
     1
 48
400.0
100
AcDbPolyline
 90
        2
 70
     0
 43
0.0
 10
1000.0
 20
172.5
 10
100.0
 20
172.5
1001
TSA_
1071
        1
1071
        3
1071
        8
1071
      255
1071
        0
1004

1040
0.0
1071
        1
  0
TEXT
  5
214
330
1E5
100
AcDbEntity
  8
A--T1---
 62
     3
100
AcDbText
 10
120.0
 20
215.0
 30
0.0
 40
14.0
  1
Detail: 208
  7
TSA-7
100
AcDbText
1001
TSA_
1071
        1
1071
        4
1071
        6
1071
      127
1071
        0
1004

1040
0.0
1071
        7
  0
LWPOLYLINE
  5
215
330
1E5
100
AcDbEntity
  8
A--L98--
  6
Continuous
 62
     1
 48
400.0
100
AcDbPolyline
 90
        4
 70
     1
 43
0.0
 10
0.0
 20
0.0
 10
0.0
 20
1485.0
 10
1050.0
 20
1485.0
 10
1050.0
 20
0.0
1001
TSA_
1071
        1
1071
        5
1071
        8
1071
      255
1071
        0
1004

1040
0.0
1071
        1
  0
LWPOLYLINE
  5
216
330
1E5
100
AcDbEntity
  8
A--L98--
  6
Continuous
 62
     1
 48
400.0
100
AcDbPolyline
 90
        4
 70
     1
 43
0.0
 10
100.0
 20
172.5
 10
100.0
 20
1435.0
 10
1000.0
 20
1435.0
 10
1000.0
 20
172.5
1001
TSA_
1071
        1
1071
        6
1071
        8
1071
      255
1071
        0
1004

1040
0.0
1071
        1
  0
ENDBLK
  5
218
330
1E5
100
AcDbEntity
  8
0
100
AcDbBlockEnd
  0
BLOCK
  5
20F
330
1E6
100
AcDbEntity
  8
0
100
AcDbBlockBegin
  2
MDET1-208$2
 70
     0
 10
0.0
 20
0.0
 30
0.0
  3
MDET1-208$2
  1

  0
INSERT
  5
1EB
330
1E6
100
AcDbEntity
  8
A--L1---
100
AcDbBlockReference
  2
MSCHROEF$2
 10
226.5
 20
124.5
 30
0.0
 50
89.99999999742762
1001
TSA_
1071
        1
1071
       -1
1071
        2
1071
      255
1071
        0
1004

1040
0.0
  0
INSERT
  5
1EC
330
1E6
100
AcDbEntity
  8
A--L1---
100
AcDbBlockReference
  2
MSCHROEF$2
 10
270.5
 20
150.5
 30
0.0
 50
180.0000000051448
1001
TSA_
1071
        1
1071
       -1
1071
        2
1071
      255
1071
        0
1004

1040
0.0
  0
INSERT
  5
1F7
330
1E6
100
AcDbEntity
  8
A--L1---
100
AcDbBlockReference
  2
MBOLBENAM$2
 10
263.0
 20
205.0
 30
0.0
1001
TSA_
1071
        1
1071
       -1
1071
        2
1071
      255
1071
        0
1004

1040
0.0
  0
INSERT
  5
1F8
330
1E6
100
AcDbEntity
  8
A--L1---
100
AcDbBlockReference
  2
MBOLBENAM$2
 10
267.75
 20
205.0
 30
0.0
1001
TSA_
1071
        1
1071
       -1
1071
        2
1071
      255
1071
        0
1004

1040
0.0
  0
INSERT
  5
1F9
330
1E6
100
AcDbEntity
  8
A--L1---
100
AcDbBlockReference
  2
M2DUM$2
 10
191.5
 20
133.5
 30
0.0
  0
LWPOLYLINE
  5
1FA
330
1E6
100
AcDbEntity
  8
A--L1---
  6
Continuous
 62
     1
 48
400.0
100
AcDbPolyline
 90
        4
 70
     1
 43
0.0
 10
191.5
 20
133.5
 10
191.5
 20
167.5
 10
261.5
 20
167.5
 10
261.5
 20
133.5
1001
TSA_
1071
        1
1071
       -1
1071
        8
1071
        3
1071
        0
1004

1040
0.0
1071
        1
  0
LWPOLYLINE
  5
1FB
330
1E6
100
AcDbEntity
  8
A--L1---
  6
Continuous
 62
     5
 48
400.0
100
AcDbPolyline
 90
        3
 70
     0
 43
0.0
 10
226.5
 20
124.5
 10
226.5
 20
73.5
 10
35.0
 20
73.5
1001
TSA_
1071
        1
1071
       -1
1071
        8
1071
      255
1071
        0
1004

1040
0.0
1071
        5
  0
INSERT
  5
1FC
330
1E6
100
AcDbEntity
  8
A--L1---
100
AcDbBlockReference
  2
M2DUM$2
 10
226.5
 20
124.5
 30
0.0
  0
LWPOLYLINE
  5
1FD
330
1E6
100
AcDbEntity
  8
A--L1---
  6
DASHDOT2
 62
     1
 48
400.0
100
AcDbPolyline
 90
        2
 70
     1
 43
0.0
 10
228.5
 20
124.4999996499497
 42
1.0
 10
224.5
 20
124.5000003500503
 42
1.0
1001
TSA_
1071
        1
1071
       -1
1071
        9
1071
        3
1071
        0
1004

1040
0.0
1071
       34
  0
HATCH
  5
1FE
330
1E6
100
AcDbEntity
  8
A--L1---
 62
     1
100
AcDbHatch
 10
0.0
 20
0.0
 30
0.0
210
0.0
220
0.0
230
1.0
  2
SOLID
 70
     1
 71
     1
 91
        1
 92
        1
 93
        2
 72
     2
 10
226.5
 20
124.5
 40
2.0
 50
359.9999899717978
 51
539.9999899717978
 73
     1
 72
     2
 10
226.5
 20
124.5
 40
2.0
 50
179.9999899717978
 51
359.9999899717978
 73
     1
 97
        0
 75
     0
 76
     1
 98
        1
 10
226.5
 20
124.5
1001
TSA_
1071
        1
1071
       -1
1071
        9
1071
        3
1071
        0
1004

1040
0.0
1071
       34
  0
LWPOLYLINE
  5
1FF
330
1E6
100
AcDbEntity
  8
A--L1---
  6
Continuous
 62
     2
 48
400.0
100
AcDbPolyline
 90
        2
 70
     1
 43
0.0
 10
228.5
 20
124.4999996499497
 42
1.0
 10
224.5
 20
124.5000003500503
 42
1.0
1001
TSA_
1071
        1
1071
       -1
1071
        8
1071
        3
1071
        0
1004

1040
0.0
1071
        7
  0
INSERT
  5
200
330
1E6
100
AcDbEntity
  8
A--L1---
100
AcDbBlockReference
  2
M2DUM$2
 10
261.5
 20
167.5
 30
0.0
  0
LWPOLYLINE
  5
201
330
1E6
100
AcDbEntity
  8
A--L1---
  6
Continuous
 62
     1
 48
400.0
100
AcDbPolyline
 90
        4
 70
     1
 43
0.0
 10
261.5
 20
167.5
 10
227.5
 20
167.5
 10
227.5
 20
237.5
 10
261.5
 20
237.5
1001
TSA_
1071
        1
1071
       -1
1071
        8
1071
        3
1071
        0
1004

1040
0.0
1071
        1
  0
INSERT
  5
202
330
1E6
100
AcDbEntity
  8
A--L1---
100
AcDbBlockReference
  2
M2DUM$2
 10
205.0
 20
133.5
 30
0.0
  0
INSERT
  5
203
330
1E6
100
AcDbEntity
  8
A--L1---
100
AcDbBlockReference
  2
M2DUM$2
 10
261.5
 20
130.5
 30
0.0
  0
LWPOLYLINE
  5
204
330
1E6
100
AcDbEntity
  8
A--L1---
  6
Continuous
 62
     1
 48
400.0
100
AcDbPolyline
 90
       10
 70
     1
 43
0.0
 10
229.5
 20
130.5
 10
264.5
 20
130.5
 10
264.5
 20
165.5
 10
265.5
 20
165.5
 10
265.5
 20
130.5
 10
273.199951171875
 20
130.5
 10
273.199951171875
 20
121.7999877929688
 10
264.5
 20
121.7999877929688
 10
264.5
 20
129.5
 10
229.5
 20
129.5
1001
TSA_
1071
        1
1071
       -1
1071
        8
1071
        3
1071
        0
1004

1040
0.0
1071
       10
  0
LWPOLYLINE
  5
205
330
1E6
100
AcDbEntity
  8
A--L1---
  6
Continuous
 62
     1
 48
400.0
100
AcDbPolyline
 90
        4
 70
     1
 43
0.0
 10
265.5
 20
129.5
 10
272.199951171875
 20
129.5
 10
272.199951171875
 20
122.7999877929688
 10
265.5
 20
122.7999877929688
1001
TSA_
1071
        1
1071
       -1
1071
        8
1071
        3
1071
        0
1004

1040
0.0
1071
       10
  0
LWPOLYLINE
  5
206
330
1E6
100
AcDbEntity
  8
A--L1---
  6
Continuous
 62
     5
 48
400.0
100
AcDbPolyline
 90
        3
 70
     0
 43
0.0
 10
244.5
 20
205.0
 10
295.0
 20
205.0
 10
295.0
 20
150.0
1001
TSA_
1071
        1
1071
       -1
1071
        8
1071
      255
1071
        0
1004

1040
0.0
1071
        5
  0
INSERT
  5
207
330
1E6
100
AcDbEntity
  8
A--L1---
100
AcDbBlockReference
  2
M2DUM$2
 10
244.5
 20
205.0
 30
0.0
  0
LWPOLYLINE
  5
208
330
1E6
100
AcDbEntity
  8
A--L1---
  6
DASHDOT2
 62
     1
 48
400.0
100
AcDbPolyline
 90
        2
 70
     1
 43
0.0
 10
246.5
 20
204.9999996499497
 42
1.0
 10
242.5
 20
205.0000003500503
 42
1.0
1001
TSA_
1071
        1
1071
       -1
1071
        9
1071
        3
1071
        0
1004

1040
0.0
1071
       34
  0
HATCH
  5
209
330
1E6
100
AcDbEntity
  8
A--L1---
 62
     1
100
AcDbHatch
 10
0.0
 20
0.0
 30
0.0
210
0.0
220
0.0
230
1.0
  2
SOLID
 70
     1
 71
     1
 91
        1
 92
        1
 93
        2
 72
     2
 10
244.5
 20
205.0
 40
2.0
 50
359.9999899717978
 51
539.9999899717978
 73
     1
 72
     2
 10
244.5
 20
205.0
 40
2.0
 50
179.9999899717978
 51
359.9999899717978
 73
     1
 97
        0
 75
     0
 76
     1
 98
        1
 10
244.5
 20
205.0
1001
TSA_
1071
        1
1071
       -1
1071
        9
1071
        3
1071
        0
1004

1040
0.0
1071
       34
  0
LWPOLYLINE
  5
20A
330
1E6
100
AcDbEntity
  8
A--L1---
  6
Continuous
 62
     2
 48
400.0
100
AcDbPolyline
 90
        2
 70
     1
 43
0.0
 10
246.5
 20
204.9999996499497
 42
1.0
 10
242.5
 20
205.0000003500503
 42
1.0
1001
TSA_
1071
        1
1071
       -1
1071
        8
1071
        3
1071
        0
1004

1040
0.0
1071
        7
  0
INSERT
  5
20B
330
1E6
100
AcDbEntity
  8
A--L1---
100
AcDbBlockReference
  2
M2DUM$2
 10
0.0
 20
130.5
 30
0.0
  0
LWPOLYLINE
  5
20C
330
1E6
100
AcDbEntity
  8
A--L1---
  6
Continuous
 62
     1
 48
400.0
100
AcDbPolyline
 90
        4
 70
     0
 43
0.0
 10
0.0
 20
130.5
 10
261.5
 20
130.5
 10
261.5
 20
124.5
 10
0.0
 20
124.5
1001
TSA_
1071
        1
1071
       -1
1071
        8
1071
        3
1071
        0
1004

1040
0.0
1071
       10
  0
INSERT
  5
20D
330
1E6
100
AcDbEntity
  8
A--L1---
100
AcDbBlockReference
  2
M2DUM$2
 10
270.5
 20
395.0
 30
0.0
  0
LWPOLYLINE
  5
20E
330
1E6
100
AcDbEntity
  8
A--L1---
  6
Continuous
 62
     1
 48
400.0
100
AcDbPolyline
 90
        4
 70
     0
 43
0.0
 10
270.5
 20
395.0
 10
270.5
 20
133.5
 10
264.5
 20
133.5
 10
264.5
 20
395.0
1001
TSA_
1071
        1
1071
       -1
1071
        8
1071
        3
1071
        0
1004

1040
0.0
1071
       10
  0
ENDBLK
  5
210
330
1E6
100
AcDbEntity
  8
0
100
AcDbBlockEnd
  0
BLOCK
  5
1E9
330
1E7
100
AcDbEntity
  8
0
100
AcDbBlockBegin
  2
MSCHROEF$2
 70
     0
 10
0.0
 20
0.0
 30
0.0
  3
MSCHROEF$2
  1

  0
LWPOLYLINE
  5
1E8
330
1E7
100
AcDbEntity
  8
A--L1---
  6
Continuous
 62
     5
 48
400.0
100
AcDbPolyline
 90
       12
 70
     0
 43
0.0
 10
4.0
 20
2.0
 10
8.0
 20
-2.0
 10
12.0
 20
2.0
 10
16.0
 20
-2.0
 10
20.0
 20
2.0
 10
24.0
 20
-2.0
 10
28.0
 20
2.0
 10
30.0
 20
0.0
 10
0.0
 20
0.0
 10
-2.0
 20
2.5
 10
-2.0
 20
-2.5
 10
0.0
 20
0.0
1001
TSA_
1071
        1
1071
       -1
1071
        8
1071
      255
1071
        0
1004

1040
0.0
1071
        5
  0
ENDBLK
  5
1EA
330
1E7
100
AcDbEntity
  8
0
100
AcDbBlockEnd
  0
BLOCK
  5
1F5
330
1ED
100
AcDbEntity
  8
0
100
AcDbBlockBegin
  2
MBOLBENAM$2
 70
     0
 10
0.0
 20
0.0
 30
0.0
  3
MBOLBENAM$2
  1

  0
INSERT
  5
1F1
330
1ED
100
AcDbEntity
  8
A--L1---
100
AcDbBlockReference
  2
M2DUM$2
 10
1.999999999999969
 20
-0.0000003500502928
 30
0.0
  0
LWPOLYLINE
  5
1F2
330
1ED
100
AcDbEntity
  8
A--L1---
  6
DASHDOT2
 62
     1
 48
400.0
100
AcDbPolyline
 90
        2
 70
     1
 43
0.0
 10
1.999999999999969
 20
-0.0000003500502928
 42
1.0
 10
-1.999999999999969
 20
0.0000003500502928
 42
1.0
1001
TSA_
1071
        1
1071
       -1
1071
        9
1071
        3
1071
        0
1004

1040
0.0
1071
       34
  0
HATCH
  5
1F3
330
1ED
100
AcDbEntity
  8
A--L1---
 62
     1
100
AcDbHatch
 10
0.0
 20
0.0
 30
0.0
210
0.0
220
0.0
230
1.0
  2
SOLID
 70
     1
 71
     1
 91
        1
 92
        1
 93
        2
 72
     2
 10
0.0
 20
0.0
 40
2.0
 50
359.9999899717978
 51
539.9999899717978
 73
     1
 72
     2
 10
0.0
 20
0.0
 40
2.0
 50
179.9999899717978
 51
359.9999899717978
 73
     1
 97
        0
 75
     0
 76
     1
 98
        1
 10
1.999999999999969
 20
-0.0000003500502928
1001
TSA_
1071
        1
1071
       -1
1071
        9
1071
        3
1071
        0
1004

1040
0.0
1071
       34
  0
LWPOLYLINE
  5
1F4
330
1ED
100
AcDbEntity
  8
A--L1---
  6
Continuous
 62
     2
 48
400.0
100
AcDbPolyline
 90
        2
 70
     1
 43
0.0
 10
1.999999999999969
 20
-0.0000003500502928
 42
1.0
 10
-1.999999999999969
 20
0.0000003500502928
 42
1.0
1001
TSA_
1071
        1
1071
       -1
1071
        8
1071
        3
1071
        0
1004

1040
0.0
1071
        7
  0
ENDBLK
  5
1F6
330
1ED
100
AcDbEntity
  8
0
100
AcDbBlockEnd
  0
BLOCK
  5
1EF
330
1EE
100
AcDbEntity
  8
0
100
AcDbBlockBegin
  2
M2DUM$2
 70
     0
 10
0.0
 20
0.0
 30
0.0
  3
M2DUM$2
  1

  0
ENDBLK
  5
1F0
330
1EE
100
AcDbEntity
  8
0
100
AcDbBlockEnd
  0
BLOCK
  5
24B
330
219
100
AcDbEntity
  8
0
100
AcDbBlockBegin
  2
NZSD208$2
 70
     0
 10
0.0
 20
0.0
 30
0.0
  3
NZSD208$2
  1

  0
INSERT
  5
245
330
219
100
AcDbEntity
  8
A--L1---
100
AcDbBlockReference
  2
NDET1-208$2
 10
335.0
 20
607.5
 30
0.0
  0
LWPOLYLINE
  5
246
330
219
100
AcDbEntity
  8
A--L107-
  6
Continuous
 62
     1
 48
400.0
100
AcDbPolyline
 90
        2
 70
     0
 43
0.0
 10
1000.0
 20
295.0
 10
100.0
 20
295.0
1001
TSA_
1071
        1
1071
        2
1071
        8
1071
      255
1071
        0
1004

1040
0.0
1071
        1
  0
LWPOLYLINE
  5
247
330
219
100
AcDbEntity
  8
A--L107-
  6
Continuous
 62
     1
 48
400.0
100
AcDbPolyline
 90
        2
 70
     0
 43
0.0
 10
1000.0
 20
172.5
 10
100.0
 20
172.5
1001
TSA_
1071
        1
1071
        3
1071
        8
1071
      255
1071
        0
1004

1040
0.0
1071
        1
  0
TEXT
  5
248
330
219
100
AcDbEntity
  8
A--T1---
 62
     3
100
AcDbText
 10
120.0
 20
215.0
 30
0.0
 40
14.0
  1
Detail: 208
  7
TSA-7
100
AcDbText
1001
TSA_
1071
        1
1071
        4
1071
        6
1071
      127
1071
        0
1004

1040
0.0
1071
        7
  0
LWPOLYLINE
  5
249
330
219
100
AcDbEntity
  8
A--L98--
  6
Continuous
 62
     1
 48
400.0
100
AcDbPolyline
 90
        4
 70
     1
 43
0.0
 10
0.0
 20
0.0
 10
0.0
 20
1485.0
 10
1050.0
 20
1485.0
 10
1050.0
 20
0.0
1001
TSA_
1071
        1
1071
        5
1071
        8
1071
      255
1071
        0
1004

1040
0.0
1071
        1
  0
LWPOLYLINE
  5
24A
330
219
100
AcDbEntity
  8
A--L98--
  6
Continuous
 62
     1
 48
400.0
100
AcDbPolyline
 90
        4
 70
     1
 43
0.0
 10
100.0
 20
172.5
 10
100.0
 20
1435.0
 10
1000.0
 20
1435.0
 10
1000.0
 20
172.5
1001
TSA_
1071
        1
1071
        6
1071
        8
1071
      255
1071
        0
1004

1040
0.0
1071
        1
  0
ENDBLK
  5
24C
330
219
100
AcDbEntity
  8
0
100
AcDbBlockEnd
  0
BLOCK
  5
243
330
21A
100
AcDbEntity
  8
0
100
AcDbBlockBegin
  2
NDET1-208$2
 70
     0
 10
0.0
 20
0.0
 30
0.0
  3
NDET1-208$2
  1

  0
INSERT
  5
21F
330
21A
100
AcDbEntity
  8
A--L1---
100
AcDbBlockReference
  2
NSCHROEF$2
 10
226.5
 20
124.5
 30
0.0
 50
89.99999999742762
1001
TSA_
1071
        1
1071
       -1
1071
        2
1071
      255
1071
        0
1004

1040
0.0
  0
INSERT
  5
220
330
21A
100
AcDbEntity
  8
A--L1---
100
AcDbBlockReference
  2
NSCHROEF$2
 10
270.5
 20
150.5
 30
0.0
 50
180.0000000051448
1001
TSA_
1071
        1
1071
       -1
1071
        2
1071
      255
1071
        0
1004

1040
0.0
  0
INSERT
  5
22B
330
21A
100
AcDbEntity
  8
A--L1---
100
AcDbBlockReference
  2
NBOLBENAM$2
 10
263.0
 20
205.0
 30
0.0
1001
TSA_
1071
        1
1071
       -1
1071
        2
1071
      255
1071
        0
1004

1040
0.0
  0
INSERT
  5
22C
330
21A
100
AcDbEntity
  8
A--L1---
100
AcDbBlockReference
  2
NBOLBENAM$2
 10
267.75
 20
205.0
 30
0.0
1001
TSA_
1071
        1
1071
       -1
1071
        2
1071
      255
1071
        0
1004

1040
0.0
  0
INSERT
  5
22D
330
21A
100
AcDbEntity
  8
A--L1---
100
AcDbBlockReference
  2
N2DUM$2
 10
191.5
 20
133.5
 30
0.0
  0
LWPOLYLINE
  5
22E
330
21A
100
AcDbEntity
  8
A--L1---
  6
Continuous
 62
     1
 48
400.0
100
AcDbPolyline
 90
        4
 70
     1
 43
0.0
 10
191.5
 20
133.5
 10
191.5
 20
167.5
 10
261.5
 20
167.5
 10
261.5
 20
133.5
1001
TSA_
1071
        1
1071
       -1
1071
        8
1071
       29
1071
        0
1004

1040
0.0
1071
        1
  0
LWPOLYLINE
  5
22F
330
21A
100
AcDbEntity
  8
A--L1---
  6
Continuous
 62
     5
 48
400.0
100
AcDbPolyline
 90
        3
 70
     0
 43
0.0
 10
226.5
 20
124.5
 10
226.5
 20
73.5
 10
35.0
 20
73.5
1001
TSA_
1071
        1
1071
       -1
1071
        8
1071
      255
1071
        0
1004

1040
0.0
1071
        5
  0
LWPOLYLINE
  5
230
330
21A
100
AcDbEntity
  8
A--L1---
  6
DASHDOT2
 62
     1
 48
400.0
100
AcDbPolyline
 90
        2
 70
     1
 43
0.0
 10
228.5
 20
124.4999996499497
 42
1.0
 10
224.5
 20
124.5000003500503
 42
1.0
1001
TSA_
1071
        1
1071
       -1
1071
        9
1071
      125
1071
        0
1004

1040
0.0
1071
       34
  0
HATCH
  5
231
330
21A
100
AcDbEntity
  8
A--L1---
 62
     1
100
AcDbHatch
 10
0.0
 20
0.0
 30
0.0
210
0.0
220
0.0
230
1.0
  2
SOLID
 70
     1
 71
     1
 91
        1
 92
        1
 93
        2
 72
     2
 10
226.5
 20
124.5
 40
2.0
 50
359.9999899717978
 51
539.9999899717978
 73
     1
 72
     2
 10
226.5
 20
124.5
 40
2.0
 50
179.9999899717978
 51
359.9999899717978
 73
     1
 97
        0
 75
     0
 76
     1
 98
        1
 10
226.5
 20
124.5
1001
TSA_
1071
        1
1071
       -1
1071
        9
1071
      125
1071
        0
1004

1040
0.0
1071
       34
  0
INSERT
  5
232
330
21A
100
AcDbEntity
  8
A--L1---
100
AcDbBlockReference
  2
N2DUM$2
 10
226.5
 20
124.5
 30
0.0
  0
LWPOLYLINE
  5
233
330
21A
100
AcDbEntity
  8
A--L1---
  6
Continuous
 62
     2
 48
400.0
100
AcDbPolyline
 90
        2
 70
     1
 43
0.0
 10
228.5
 20
124.4999996499497
 42
1.0
 10
224.5
 20
124.5000003500503
 42
1.0
1001
TSA_
1071
        1
1071
       -1
1071
        8
1071
      125
1071
        0
1004

1040
0.0
1071
        7
  0
INSERT
  5
234
330
21A
100
AcDbEntity
  8
A--L1---
100
AcDbBlockReference
  2
N2DUM$2
 10
261.5
 20
167.5
 30
0.0
  0
LWPOLYLINE
  5
235
330
21A
100
AcDbEntity
  8
A--L1---
  6
Continuous
 62
     1
 48
400.0
100
AcDbPolyline
 90
        4
 70
     1
 43
0.0
 10
261.5
 20
167.5
 10
227.5
 20
167.5
 10
227.5
 20
237.5
 10
261.5
 20
237.5
1001
TSA_
1071
        1
1071
       -1
1071
        8
1071
       29
1071
        0
1004

1040
0.0
1071
        1
  0
INSERT
  5
236
330
21A
100
AcDbEntity
  8
A--L1---
100
AcDbBlockReference
  2
N2DUM$2
 10
205.0
 20
133.5
 30
0.0
  0
INSERT
  5
237
330
21A
100
AcDbEntity
  8
A--L1---
100
AcDbBlockReference
  2
N2DUM$2
 10
261.5
 20
130.5
 30
0.0
  0
LWPOLYLINE
  5
238
330
21A
100
AcDbEntity
  8
A--L1---
  6
Continuous
 62
     1
 48
400.0
100
AcDbPolyline
 90
       10
 70
     1
 43
0.0
 10
229.5
 20
130.5
 10
264.5
 20
130.5
 10
264.5
 20
165.5
 10
265.5
 20
165.5
 10
265.5
 20
130.5
 10
273.199951171875
 20
130.5
 10
273.199951171875
 20
121.7999877929688
 10
264.5
 20
121.7999877929688
 10
264.5
 20
129.5
 10
229.5
 20
129.5
1001
TSA_
1071
        1
1071
       -1
1071
        8
1071
      125
1071
        0
1004

1040
0.0
1071
       10
  0
LWPOLYLINE
  5
239
330
21A
100
AcDbEntity
  8
A--L1---
  6
Continuous
 62
     1
 48
400.0
100
AcDbPolyline
 90
        4
 70
     1
 43
0.0
 10
265.5
 20
129.5
 10
272.199951171875
 20
129.5
 10
272.199951171875
 20
122.7999877929688
 10
265.5
 20
122.7999877929688
1001
TSA_
1071
        1
1071
       -1
1071
        8
1071
      125
1071
        0
1004

1040
0.0
1071
       10
  0
LWPOLYLINE
  5
23A
330
21A
100
AcDbEntity
  8
A--L1---
  6
Continuous
 62
     5
 48
400.0
100
AcDbPolyline
 90
        3
 70
     0
 43
0.0
 10
244.5
 20
205.0
 10
295.0
 20
205.0
 10
295.0
 20
150.0
1001
TSA_
1071
        1
1071
       -1
1071
        8
1071
      255
1071
        0
1004

1040
0.0
1071
        5
  0
LWPOLYLINE
  5
23B
330
21A
100
AcDbEntity
  8
A--L1---
  6
DASHDOT2
 62
     1
 48
400.0
100
AcDbPolyline
 90
        2
 70
     1
 43
0.0
 10
246.5
 20
204.9999996499497
 42
1.0
 10
242.5
 20
205.0000003500503
 42
1.0
1001
TSA_
1071
        1
1071
       -1
1071
        9
1071
      125
1071
        0
1004

1040
0.0
1071
       34
  0
HATCH
  5
23C
330
21A
100
AcDbEntity
  8
A--L1---
 62
     1
100
AcDbHatch
 10
0.0
 20
0.0
 30
0.0
210
0.0
220
0.0
230
1.0
  2
SOLID
 70
     1
 71
     1
 91
        1
 92
        1
 93
        2
 72
     2
 10
244.5
 20
205.0
 40
2.0
 50
359.9999899717978
 51
539.9999899717978
 73
     1
 72
     2
 10
244.5
 20
205.0
 40
2.0
 50
179.9999899717978
 51
359.9999899717978
 73
     1
 97
        0
 75
     0
 76
     1
 98
        1
 10
244.5
 20
205.0
1001
TSA_
1071
        1
1071
       -1
1071
        9
1071
      125
1071
        0
1004

1040
0.0
1071
       34
  0
INSERT
  5
23D
330
21A
100
AcDbEntity
  8
A--L1---
100
AcDbBlockReference
  2
N2DUM$2
 10
244.5
 20
205.0
 30
0.0
  0
LWPOLYLINE
  5
23E
330
21A
100
AcDbEntity
  8
A--L1---
  6
Continuous
 62
     2
 48
400.0
100
AcDbPolyline
 90
        2
 70
     1
 43
0.0
 10
246.5
 20
204.9999996499497
 42
1.0
 10
242.5
 20
205.0000003500503
 42
1.0
1001
TSA_
1071
        1
1071
       -1
1071
        8
1071
      125
1071
        0
1004

1040
0.0
1071
        7
  0
INSERT
  5
23F
330
21A
100
AcDbEntity
  8
A--L1---
100
AcDbBlockReference
  2
N2DUM$2
 10
0.0
 20
130.5
 30
0.0
  0
LWPOLYLINE
  5
240
330
21A
100
AcDbEntity
  8
A--L1---
  6
Continuous
 62
     1
 48
400.0
100
AcDbPolyline
 90
        4
 70
     0
 43
0.0
 10
0.0
 20
130.5
 10
261.5
 20
130.5
 10
261.5
 20
124.5
 10
0.0
 20
124.5
1001
TSA_
1071
        1
1071
       -1
1071
        8
1071
      125
1071
        0
1004

1040
0.0
1071
       10
  0
INSERT
  5
241
330
21A
100
AcDbEntity
  8
A--L1---
100
AcDbBlockReference
  2
N2DUM$2
 10
270.5
 20
395.0
 30
0.0
  0
LWPOLYLINE
  5
242
330
21A
100
AcDbEntity
  8
A--L1---
  6
Continuous
 62
     1
 48
400.0
100
AcDbPolyline
 90
        4
 70
     0
 43
0.0
 10
270.5
 20
395.0
 10
270.5
 20
133.5
 10
264.5
 20
133.5
 10
264.5
 20
395.0
1001
TSA_
1071
        1
1071
       -1
1071
        8
1071
      125
1071
        0
1004

1040
0.0
1071
       10
  0
ENDBLK
  5
244
330
21A
100
AcDbEntity
  8
0
100
AcDbBlockEnd
  0
BLOCK
  5
21D
330
21B
100
AcDbEntity
  8
0
100
AcDbBlockBegin
  2
NSCHROEF$2
 70
     0
 10
0.0
 20
0.0
 30
0.0
  3
NSCHROEF$2
  1

  0
LWPOLYLINE
  5
21C
330
21B
100
AcDbEntity
  8
A--L1---
  6
Continuous
 62
     5
 48
400.0
100
AcDbPolyline
 90
       12
 70
     0
 43
0.0
 10
4.0
 20
2.0
 10
8.0
 20
-2.0
 10
12.0
 20
2.0
 10
16.0
 20
-2.0
 10
20.0
 20
2.0
 10
24.0
 20
-2.0
 10
28.0
 20
2.0
 10
30.0
 20
0.0
 10
0.0
 20
0.0
 10
-2.0
 20
2.5
 10
-2.0
 20
-2.5
 10
0.0
 20
0.0
1001
TSA_
1071
        1
1071
       -1
1071
        8
1071
      255
1071
        0
1004

1040
0.0
1071
        5
  0
ENDBLK
  5
21E
330
21B
100
AcDbEntity
  8
0
100
AcDbBlockEnd
  0
BLOCK
  5
229
330
221
100
AcDbEntity
  8
0
100
AcDbBlockBegin
  2
NBOLBENAM$2
 70
     0
 10
0.0
 20
0.0
 30
0.0
  3
NBOLBENAM$2
  1

  0
LWPOLYLINE
  5
222
330
221
100
AcDbEntity
  8
A--L1---
  6
DASHDOT2
 62
     1
 48
400.0
100
AcDbPolyline
 90
        2
 70
     1
 43
0.0
 10
1.999999999999969
 20
-0.0000003500502928
 42
1.0
 10
-1.999999999999969
 20
0.0000003500502928
 42
1.0
1001
TSA_
1071
        1
1071
       -1
1071
        9
1071
      125
1071
        0
1004

1040
0.0
1071
       34
  0
HATCH
  5
223
330
221
100
AcDbEntity
  8
A--L1---
 62
     1
100
AcDbHatch
 10
0.0
 20
0.0
 30
0.0
210
0.0
220
0.0
230
1.0
  2
SOLID
 70
     1
 71
     1
 91
        1
 92
        1
 93
        2
 72
     2
 10
0.0
 20
0.0
 40
2.0
 50
359.9999899717978
 51
539.9999899717978
 73
     1
 72
     2
 10
0.0
 20
0.0
 40
2.0
 50
179.9999899717978
 51
359.9999899717978
 73
     1
 97
        0
 75
     0
 76
     1
 98
        1
 10
1.999999999999969
 20
-0.0000003500502928
1001
TSA_
1071
        1
1071
       -1
1071
        9
1071
      125
1071
        0
1004

1040
0.0
1071
       34
  0
INSERT
  5
227
330
221
100
AcDbEntity
  8
A--L1---
100
AcDbBlockReference
  2
N2DUM$2
 10
1.999999999999969
 20
-0.0000003500502928
 30
0.0
  0
LWPOLYLINE
  5
228
330
221
100
AcDbEntity
  8
A--L1---
  6
Continuous
 62
     2
 48
400.0
100
AcDbPolyline
 90
        2
 70
     1
 43
0.0
 10
1.999999999999969
 20
-0.0000003500502928
 42
1.0
 10
-1.999999999999969
 20
0.0000003500502928
 42
1.0
1001
TSA_
1071
        1
1071
       -1
1071
        8
1071
      125
1071
        0
1004

1040
0.0
1071
        7
  0
ENDBLK
  5
22A
330
221
100
AcDbEntity
  8
0
100
AcDbBlockEnd
  0
BLOCK
  5
225
330
224
100
AcDbEntity
  8
0
100
AcDbBlockBegin
  2
N2DUM$2
 70
     0
 10
0.0
 20
0.0
 30
0.0
  3
N2DUM$2
  1

  0
ENDBLK
  5
226
330
224
100
AcDbEntity
  8
0
100
AcDbBlockEnd
  0
BLOCK
  5
283
330
24D
100
AcDbEntity
  8
0
100
AcDbBlockBegin
  2
HZSD208$2
 70
     0
 10
0.0
 20
0.0
 30
0.0
  3
HZSD208$2
  1

  0
INSERT
  5
27D
330
24D
100
AcDbEntity
  8
A--L1---
100
AcDbBlockReference
  2
HDET1-208$2
 10
335.0
 20
607.5
 30
0.0
  0
LWPOLYLINE
  5
27E
330
24D
100
AcDbEntity
  8
A--L107-
  6
Continuous
 62
     1
 48
400.0
100
AcDbPolyline
 90
        2
 70
     0
 43
0.0
 10
1000.0
 20
295.0
 10
100.0
 20
295.0
1001
TSA_
1071
        1
1071
        2
1071
        8
1071
      255
1071
        0
1004

1040
0.0
1071
        1
  0
LWPOLYLINE
  5
27F
330
24D
100
AcDbEntity
  8
A--L107-
  6
Continuous
 62
     1
 48
400.0
100
AcDbPolyline
 90
        2
 70
     0
 43
0.0
 10
1000.0
 20
172.5
 10
100.0
 20
172.5
1001
TSA_
1071
        1
1071
        3
1071
        8
1071
      255
1071
        0
1004

1040
0.0
1071
        1
  0
TEXT
  5
280
330
24D
100
AcDbEntity
  8
A--T1---
 62
     3
100
AcDbText
 10
120.0
 20
215.0
 30
0.0
 40
14.0
  1
Detail: 208
  7
TSA-7
100
AcDbText
1001
TSA_
1071
        1
1071
        4
1071
        6
1071
      127
1071
        0
1004

1040
0.0
1071
        7
  0
LWPOLYLINE
  5
281
330
24D
100
AcDbEntity
  8
A--L98--
  6
Continuous
 62
     1
 48
400.0
100
AcDbPolyline
 90
        4
 70
     1
 43
0.0
 10
0.0
 20
0.0
 10
0.0
 20
1485.0
 10
1050.0
 20
1485.0
 10
1050.0
 20
0.0
1001
TSA_
1071
        1
1071
        5
1071
        8
1071
      255
1071
        0
1004

1040
0.0
1071
        1
  0
LWPOLYLINE
  5
282
330
24D
100
AcDbEntity
  8
A--L98--
  6
Continuous
 62
     1
 48
400.0
100
AcDbPolyline
 90
        4
 70
     1
 43
0.0
 10
100.0
 20
172.5
 10
100.0
 20
1435.0
 10
1000.0
 20
1435.0
 10
1000.0
 20
172.5
1001
TSA_
1071
        1
1071
        6
1071
        8
1071
      255
1071
        0
1004

1040
0.0
1071
        1
  0
ENDBLK
  5
284
330
24D
100
AcDbEntity
  8
0
100
AcDbBlockEnd
  0
BLOCK
  5
27B
330
24E
100
AcDbEntity
  8
0
100
AcDbBlockBegin
  2
HDET1-208$2
 70
     0
 10
0.0
 20
0.0
 30
0.0
  3
HDET1-208$2
  1

  0
INSERT
  5
253
330
24E
100
AcDbEntity
  8
A--L1---
100
AcDbBlockReference
  2
HSCHROEF$2
 10
226.5
 20
124.5
 30
0.0
 50
89.99999999742762
1001
TSA_
1071
        1
1071
       -1
1071
        2
1071
      255
1071
        0
1004

1040
0.0
  0
INSERT
  5
254
330
24E
100
AcDbEntity
  8
A--L1---
100
AcDbBlockReference
  2
HSCHROEF$2
 10
270.5
 20
150.5
 30
0.0
 50
180.0000000051448
1001
TSA_
1071
        1
1071
       -1
1071
        2
1071
      255
1071
        0
1004

1040
0.0
  0
INSERT
  5
25F
330
24E
100
AcDbEntity
  8
A--L1---
100
AcDbBlockReference
  2
HBOLBENAM$2
 10
263.0
 20
205.0
 30
0.0
1001
TSA_
1071
        1
1071
       -1
1071
        2
1071
      255
1071
        0
1004

1040
0.0
  0
INSERT
  5
260
330
24E
100
AcDbEntity
  8
A--L1---
100
AcDbBlockReference
  2
HBOLBENAM$2
 10
267.75
 20
205.0
 30
0.0
1001
TSA_
1071
        1
1071
       -1
1071
        2
1071
      255
1071
        0
1004

1040
0.0
  0
LWPOLYLINE
  5
261
330
24E
100
AcDbEntity
  8
A--L1---
  6
Continuous
 62
     1
 48
400.0
100
AcDbPolyline
 90
        4
 70
     1
 43
0.0
 10
191.5
 20
133.5
 10
191.5
 20
167.5
 10
261.5
 20
167.5
 10
261.5
 20
133.5
1001
TSA_
1071
        1
1071
       -1
1071
        9
1071
      121
1071
        0
1004

1040
0.0
1071
       49
  0
HATCH
  5
262
330
24E
100
AcDbEntity
  8
A--L1---
 62
     5
100
AcDbHatch
 10
0.0
 20
0.0
 30
0.0
210
0.0
220
0.0
230
1.0
  2
ANSI31
 70
     0
 71
     1
 91
        1
 92
        1
 93
        4
 72
     1
 10
191.5
 20
133.5
 11
191.5
 21
167.5
 72
     1
 10
191.5
 20
167.5
 11
261.5
 21
167.5
 72
     1
 10
261.5
 20
167.5
 11
261.5
 21
133.5
 72
     1
 10
261.5
 20
133.5
 11
191.5
 21
133.5
 97
        0
 75
     0
 76
     1
 52
90.00001494311726
 41
75.0
 77
     0
 78
     1
 53
135.0000149431173
 43
0.0
 44
0.0
 45
-168.3797583554777
 46
-168.3798461846041
 79
     0
 98
        1
 10
191.5
 20
133.5
1001
TSA_
1071
        1
1071
       -1
1071
        9
1071
      121
1071
        0
1004

1040
0.0
1071
       49
  0
INSERT
  5
263
330
24E
100
AcDbEntity
  8
A--L1---
100
AcDbBlockReference
  2
H2DUM$2
 10
191.5
 20
133.5
 30
0.0
  0
LWPOLYLINE
  5
264
330
24E
100
AcDbEntity
  8
A--L1---
  6
Continuous
 62
     1
 48
400.0
100
AcDbPolyline
 90
        4
 70
     1
 43
0.0
 10
191.5
 20
133.5
 10
191.5
 20
167.5
 10
261.5
 20
167.5
 10
261.5
 20
133.5
1001
TSA_
1071
        1
1071
       -1
1071
        8
1071
       29
1071
        0
1004

1040
0.0
1071
        1
  0
LWPOLYLINE
  5
265
330
24E
100
AcDbEntity
  8
A--L1---
  6
Continuous
 62
     5
 48
400.0
100
AcDbPolyline
 90
        3
 70
     0
 43
0.0
 10
226.5
 20
124.5
 10
226.5
 20
73.5
 10
35.0
 20
73.5
1001
TSA_
1071
        1
1071
       -1
1071
        8
1071
      255
1071
        0
1004

1040
0.0
1071
        5
  0
LWPOLYLINE
  5
266
330
24E
100
AcDbEntity
  8
A--L1---
  6
DASHDOT2
 62
     1
 48
400.0
100
AcDbPolyline
 90
        2
 70
     1
 43
0.0
 10
228.5
 20
124.4999996499497
 42
1.0
 10
224.5
 20
124.5000003500503
 42
1.0
1001
TSA_
1071
        1
1071
       -1
1071
        9
1071
      125
1071
        0
1004

1040
0.0
1071
       34
  0
HATCH
  5
267
330
24E
100
AcDbEntity
  8
A--L1---
 62
     1
100
AcDbHatch
 10
0.0
 20
0.0
 30
0.0
210
0.0
220
0.0
230
1.0
  2
SOLID
 70
     1
 71
     1
 91
        1
 92
        1
 93
        2
 72
     2
 10
226.5
 20
124.5
 40
2.0
 50
359.9999899717978
 51
539.9999899717978
 73
     1
 72
     2
 10
226.5
 20
124.5
 40
2.0
 50
179.9999899717978
 51
359.9999899717978
 73
     1
 97
        0
 75
     0
 76
     1
 98
        1
 10
226.5
 20
124.5
1001
TSA_
1071
        1
1071
       -1
1071
        9
1071
      125
1071
        0
1004

1040
0.0
1071
       34
  0
INSERT
  5
268
330
24E
100
AcDbEntity
  8
A--L1---
100
AcDbBlockReference
  2
H2DUM$2
 10
226.5
 20
124.5
 30
0.0
  0
LWPOLYLINE
  5
269
330
24E
100
AcDbEntity
  8
A--L1---
  6
Continuous
 62
     2
 48
400.0
100
AcDbPolyline
 90
        2
 70
     1
 43
0.0
 10
228.5
 20
124.4999996499497
 42
1.0
 10
224.5
 20
124.5000003500503
 42
1.0
1001
TSA_
1071
        1
1071
       -1
1071
        8
1071
      125
1071
        0
1004

1040
0.0
1071
        7
  0
LWPOLYLINE
  5
26A
330
24E
100
AcDbEntity
  8
A--L1---
  6
Continuous
 62
     1
 48
400.0
100
AcDbPolyline
 90
        4
 70
     1
 43
0.0
 10
261.5
 20
167.5
 10
227.5
 20
167.5
 10
227.5
 20
237.5
 10
261.5
 20
237.5
1001
TSA_
1071
        1
1071
       -1
1071
        9
1071
      121
1071
        0
1004

1040
0.0
1071
       49
  0
HATCH
  5
26B
330
24E
100
AcDbEntity
  8
A--L1---
 62
     5
100
AcDbHatch
 10
0.0
 20
0.0
 30
0.0
210
0.0
220
0.0
230
1.0
  2
ANSI31
 70
     0
 71
     1
 91
        1
 92
        1
 93
        4
 72
     1
 10
261.5
 20
167.5
 11
227.5
 21
167.5
 72
     1
 10
227.5
 20
167.5
 11
227.5
 21
237.5
 72
     1
 10
227.5
 20
237.5
 11
261.5
 21
237.5
 72
     1
 10
261.5
 20
237.5
 11
261.5
 21
167.5
 97
        0
 75
     0
 76
     1
 52
90.00001494311726
 41
75.0
 77
     0
 78
     1
 53
135.0000149431173
 43
0.0
 44
0.0
 45
-168.3797583554777
 46
-168.3798461846041
 79
     0
 98
        1
 10
261.5
 20
167.5
1001
TSA_
1071
        1
1071
       -1
1071
        9
1071
      121
1071
        0
1004

1040
0.0
1071
       49
  0
INSERT
  5
26C
330
24E
100
AcDbEntity
  8
A--L1---
100
AcDbBlockReference
  2
H2DUM$2
 10
261.5
 20
167.5
 30
0.0
  0
LWPOLYLINE
  5
26D
330
24E
100
AcDbEntity
  8
A--L1---
  6
Continuous
 62
     1
 48
400.0
100
AcDbPolyline
 90
        4
 70
     1
 43
0.0
 10
261.5
 20
167.5
 10
227.5
 20
167.5
 10
227.5
 20
237.5
 10
261.5
 20
237.5
1001
TSA_
1071
        1
1071
       -1
1071
        8
1071
       29
1071
        0
1004

1040
0.0
1071
        1
  0
INSERT
  5
26E
330
24E
100
AcDbEntity
  8
A--L1---
100
AcDbBlockReference
  2
H2DUM$2
 10
205.0
 20
133.5
 30
0.0
  0
INSERT
  5
26F
330
24E
100
AcDbEntity
  8
A--L1---
100
AcDbBlockReference
  2
H2DUM$2
 10
261.5
 20
130.5
 30
0.0
  0
LWPOLYLINE
  5
270
330
24E
100
AcDbEntity
  8
A--L1---
  6
Continuous
 62
     1
 48
400.0
100
AcDbPolyline
 90
       10
 70
     1
 43
0.0
 10
229.5
 20
130.5
 10
264.5
 20
130.5
 10
264.5
 20
165.5
 10
265.5
 20
165.5
 10
265.5
 20
130.5
 10
273.199951171875
 20
130.5
 10
273.199951171875
 20
121.7999877929688
 10
264.5
 20
121.7999877929688
 10
264.5
 20
129.5
 10
229.5
 20
129.5
1001
TSA_
1071
        1
1071
       -1
1071
        8
1071
      125
1071
        0
1004

1040
0.0
1071
       10
  0
LWPOLYLINE
  5
271
330
24E
100
AcDbEntity
  8
A--L1---
  6
Continuous
 62
     1
 48
400.0
100
AcDbPolyline
 90
        4
 70
     1
 43
0.0
 10
265.5
 20
129.5
 10
272.199951171875
 20
129.5
 10
272.199951171875
 20
122.7999877929688
 10
265.5
 20
122.7999877929688
1001
TSA_
1071
        1
1071
       -1
1071
        8
1071
      125
1071
        0
1004

1040
0.0
1071
       10
  0
LWPOLYLINE
  5
272
330
24E
100
AcDbEntity
  8
A--L1---
  6
Continuous
 62
     5
 48
400.0
100
AcDbPolyline
 90
        3
 70
     0
 43
0.0
 10
244.5
 20
205.0
 10
295.0
 20
205.0
 10
295.0
 20
150.0
1001
TSA_
1071
        1
1071
       -1
1071
        8
1071
      255
1071
        0
1004

1040
0.0
1071
        5
  0
LWPOLYLINE
  5
273
330
24E
100
AcDbEntity
  8
A--L1---
  6
DASHDOT2
 62
     1
 48
400.0
100
AcDbPolyline
 90
        2
 70
     1
 43
0.0
 10
246.5
 20
204.9999996499497
 42
1.0
 10
242.5
 20
205.0000003500503
 42
1.0
1001
TSA_
1071
        1
1071
       -1
1071
        9
1071
      125
1071
        0
1004

1040
0.0
1071
       34
  0
HATCH
  5
274
330
24E
100
AcDbEntity
  8
A--L1---
 62
     1
100
AcDbHatch
 10
0.0
 20
0.0
 30
0.0
210
0.0
220
0.0
230
1.0
  2
SOLID
 70
     1
 71
     1
 91
        1
 92
        1
 93
        2
 72
     2
 10
244.5
 20
205.0
 40
2.0
 50
359.9999899717978
 51
539.9999899717978
 73
     1
 72
     2
 10
244.5
 20
205.0
 40
2.0
 50
179.9999899717978
 51
359.9999899717978
 73
     1
 97
        0
 75
     0
 76
     1
 98
        1
 10
244.5
 20
205.0
1001
TSA_
1071
        1
1071
       -1
1071
        9
1071
      125
1071
        0
1004

1040
0.0
1071
       34
  0
INSERT
  5
275
330
24E
100
AcDbEntity
  8
A--L1---
100
AcDbBlockReference
  2
H2DUM$2
 10
244.5
 20
205.0
 30
0.0
  0
LWPOLYLINE
  5
276
330
24E
100
AcDbEntity
  8
A--L1---
  6
Continuous
 62
     2
 48
400.0
100
AcDbPolyline
 90
        2
 70
     1
 43
0.0
 10
246.5
 20
204.9999996499497
 42
1.0
 10
242.5
 20
205.0000003500503
 42
1.0
1001
TSA_
1071
        1
1071
       -1
1071
        8
1071
      125
1071
        0
1004

1040
0.0
1071
        7
  0
INSERT
  5
277
330
24E
100
AcDbEntity
  8
A--L1---
100
AcDbBlockReference
  2
H2DUM$2
 10
0.0
 20
130.5
 30
0.0
  0
LWPOLYLINE
  5
278
330
24E
100
AcDbEntity
  8
A--L1---
  6
Continuous
 62
     1
 48
400.0
100
AcDbPolyline
 90
        4
 70
     0
 43
0.0
 10
0.0
 20
130.5
 10
261.5
 20
130.5
 10
261.5
 20
124.5
 10
0.0
 20
124.5
1001
TSA_
1071
        1
1071
       -1
1071
        8
1071
      125
1071
        0
1004

1040
0.0
1071
       10
  0
INSERT
  5
279
330
24E
100
AcDbEntity
  8
A--L1---
100
AcDbBlockReference
  2
H2DUM$2
 10
270.5
 20
395.0
 30
0.0
  0
LWPOLYLINE
  5
27A
330
24E
100
AcDbEntity
  8
A--L1---
  6
Continuous
 62
     1
 48
400.0
100
AcDbPolyline
 90
        4
 70
     0
 43
0.0
 10
270.5
 20
395.0
 10
270.5
 20
133.5
 10
264.5
 20
133.5
 10
264.5
 20
395.0
1001
TSA_
1071
        1
1071
       -1
1071
        8
1071
      125
1071
        0
1004

1040
0.0
1071
       10
  0
ENDBLK
  5
27C
330
24E
100
AcDbEntity
  8
0
100
AcDbBlockEnd
  0
BLOCK
  5
251
330
24F
100
AcDbEntity
  8
0
100
AcDbBlockBegin
  2
HSCHROEF$2
 70
     0
 10
0.0
 20
0.0
 30
0.0
  3
HSCHROEF$2
  1

  0
LWPOLYLINE
  5
250
330
24F
100
AcDbEntity
  8
A--L1---
  6
Continuous
 62
     5
 48
400.0
100
AcDbPolyline
 90
       12
 70
     0
 43
0.0
 10
4.0
 20
2.0
 10
8.0
 20
-2.0
 10
12.0
 20
2.0
 10
16.0
 20
-2.0
 10
20.0
 20
2.0
 10
24.0
 20
-2.0
 10
28.0
 20
2.0
 10
30.0
 20
0.0
 10
0.0
 20
0.0
 10
-2.0
 20
2.5
 10
-2.0
 20
-2.5
 10
0.0
 20
0.0
1001
TSA_
1071
        1
1071
       -1
1071
        8
1071
      255
1071
        0
1004

1040
0.0
1071
        5
  0
ENDBLK
  5
252
330
24F
100
AcDbEntity
  8
0
100
AcDbBlockEnd
  0
BLOCK
  5
25D
330
255
100
AcDbEntity
  8
0
100
AcDbBlockBegin
  2
HBOLBENAM$2
 70
     0
 10
0.0
 20
0.0
 30
0.0
  3
HBOLBENAM$2
  1

  0
LWPOLYLINE
  5
256
330
255
100
AcDbEntity
  8
A--L1---
  6
DASHDOT2
 62
     1
 48
400.0
100
AcDbPolyline
 90
        2
 70
     1
 43
0.0
 10
1.999999999999969
 20
-0.0000003500502928
 42
1.0
 10
-1.999999999999969
 20
0.0000003500502928
 42
1.0
1001
TSA_
1071
        1
1071
       -1
1071
        9
1071
      125
1071
        0
1004

1040
0.0
1071
       34
  0
HATCH
  5
257
330
255
100
AcDbEntity
  8
A--L1---
 62
     1
100
AcDbHatch
 10
0.0
 20
0.0
 30
0.0
210
0.0
220
0.0
230
1.0
  2
SOLID
 70
     1
 71
     1
 91
        1
 92
        1
 93
        2
 72
     2
 10
0.0
 20
0.0
 40
2.0
 50
359.9999899717978
 51
539.9999899717978
 73
     1
 72
     2
 10
0.0
 20
0.0
 40
2.0
 50
179.9999899717978
 51
359.9999899717978
 73
     1
 97
        0
 75
     0
 76
     1
 98
        1
 10
1.999999999999969
 20
-0.0000003500502928
1001
TSA_
1071
        1
1071
       -1
1071
        9
1071
      125
1071
        0
1004

1040
0.0
1071
       34
  0
INSERT
  5
25B
330
255
100
AcDbEntity
  8
A--L1---
100
AcDbBlockReference
  2
H2DUM$2
 10
1.999999999999969
 20
-0.0000003500502928
 30
0.0
  0
LWPOLYLINE
  5
25C
330
255
100
AcDbEntity
  8
A--L1---
  6
Continuous
 62
     2
 48
400.0
100
AcDbPolyline
 90
        2
 70
     1
 43
0.0
 10
1.999999999999969
 20
-0.0000003500502928
 42
1.0
 10
-1.999999999999969
 20
0.0000003500502928
 42
1.0
1001
TSA_
1071
        1
1071
       -1
1071
        8
1071
      125
1071
        0
1004

1040
0.0
1071
        7
  0
ENDBLK
  5
25E
330
255
100
AcDbEntity
  8
0
100
AcDbBlockEnd
  0
BLOCK
  5
259
330
258
100
AcDbEntity
  8
0
100
AcDbBlockBegin
  2
H2DUM$2
 70
     0
 10
0.0
 20
0.0
 30
0.0
  3
H2DUM$2
  1

  0
ENDBLK
  5
25A
330
258
100
AcDbEntity
  8
0
100
AcDbBlockEnd
  0
BLOCK
  5
2BF
330
285
100
AcDbEntity
  8
0
100
AcDbBlockBegin
  2
WZSD208$2
 70
     0
 10
0.0
 20
0.0
 30
0.0
  3
WZSD208$2
  1

  0
INSERT
  5
2B9
330
285
100
AcDbEntity
  8
A--L1---
100
AcDbBlockReference
  2
WDET1-208$2
 10
335.0
 20
607.5
 30
0.0
  0
LWPOLYLINE
  5
2BA
330
285
100
AcDbEntity
  8
A--L107-
  6
Continuous
 62
     1
 48
400.0
100
AcDbPolyline
 90
        2
 70
     0
 43
0.0
 10
1000.0
 20
295.0
 10
100.0
 20
295.0
1001
TSA_
1071
        1
1071
        2
1071
        8
1071
      255
1071
        0
1004

1040
0.0
1071
        1
  0
LWPOLYLINE
  5
2BB
330
285
100
AcDbEntity
  8
A--L107-
  6
Continuous
 62
     1
 48
400.0
100
AcDbPolyline
 90
        2
 70
     0
 43
0.0
 10
1000.0
 20
172.5
 10
100.0
 20
172.5
1001
TSA_
1071
        1
1071
        3
1071
        8
1071
      255
1071
        0
1004

1040
0.0
1071
        1
  0
TEXT
  5
2BC
330
285
100
AcDbEntity
  8
A--T1---
 62
     3
100
AcDbText
 10
120.0
 20
215.0
 30
0.0
 40
14.0
  1
Detail: 208
  7
TSA-7
100
AcDbText
1001
TSA_
1071
        1
1071
        4
1071
        6
1071
      127
1071
        0
1004

1040
0.0
1071
        7
  0
LWPOLYLINE
  5
2BD
330
285
100
AcDbEntity
  8
A--L98--
  6
Continuous
 62
     1
 48
400.0
100
AcDbPolyline
 90
        4
 70
     1
 43
0.0
 10
0.0
 20
0.0
 10
0.0
 20
1485.0
 10
1050.0
 20
1485.0
 10
1050.0
 20
0.0
1001
TSA_
1071
        1
1071
        5
1071
        8
1071
      255
1071
        0
1004

1040
0.0
1071
        1
  0
LWPOLYLINE
  5
2BE
330
285
100
AcDbEntity
  8
A--L98--
  6
Continuous
 62
     1
 48
400.0
100
AcDbPolyline
 90
        4
 70
     1
 43
0.0
 10
100.0
 20
172.5
 10
100.0
 20
1435.0
 10
1000.0
 20
1435.0
 10
1000.0
 20
172.5
1001
TSA_
1071
        1
1071
        6
1071
        8
1071
      255
1071
        0
1004

1040
0.0
1071
        1
  0
ENDBLK
  5
2C0
330
285
100
AcDbEntity
  8
0
100
AcDbBlockEnd
  0
BLOCK
  5
2B7
330
286
100
AcDbEntity
  8
0
100
AcDbBlockBegin
  2
WDET1-208$2
 70
     0
 10
0.0
 20
0.0
 30
0.0
  3
WDET1-208$2
  1

  0
INSERT
  5
28B
330
286
100
AcDbEntity
  8
A--L1---
100
AcDbBlockReference
  2
WSCHROEF$2
 10
226.5
 20
124.5
 30
0.0
 50
89.99999999742762
1001
TSA_
1071
        1
1071
       -1
1071
        2
1071
      255
1071
        0
1004

1040
0.0
  0
INSERT
  5
28C
330
286
100
AcDbEntity
  8
A--L1---
100
AcDbBlockReference
  2
WSCHROEF$2
 10
270.5
 20
150.5
 30
0.0
 50
180.0000000051448
1001
TSA_
1071
        1
1071
       -1
1071
        2
1071
      255
1071
        0
1004

1040
0.0
  0
INSERT
  5
297
330
286
100
AcDbEntity
  8
A--L1---
100
AcDbBlockReference
  2
WBOLBENAM$2
 10
263.0
 20
205.0
 30
0.0
1001
TSA_
1071
        1
1071
       -1
1071
        2
1071
      255
1071
        0
1004

1040
0.0
  0
INSERT
  5
298
330
286
100
AcDbEntity
  8
A--L1---
100
AcDbBlockReference
  2
WBOLBENAM$2
 10
267.75
 20
205.0
 30
0.0
1001
TSA_
1071
        1
1071
       -1
1071
        2
1071
      255
1071
        0
1004

1040
0.0
  0
LWPOLYLINE
  5
299
330
286
100
AcDbEntity
  8
A--L1---
  6
Continuous
 62
     1
 48
400.0
100
AcDbPolyline
 90
        4
 70
     1
 43
0.0
 10
191.5
 20
133.5
 10
191.5
 20
167.5
 10
261.5
 20
167.5
 10
261.5
 20
133.5
1001
TSA_
1071
        1
1071
       -1
1071
        9
1071
      121
1071
        0
1004

1040
0.0
1071
       49
  0
HATCH
  5
29A
330
286
100
AcDbEntity
  8
A--L1---
 62
     5
100
AcDbHatch
 10
0.0
 20
0.0
 30
0.0
210
0.0
220
0.0
230
1.0
  2
ANSI31
 70
     0
 71
     1
 91
        1
 92
        1
 93
        4
 72
     1
 10
191.5
 20
133.5
 11
191.5
 21
167.5
 72
     1
 10
191.5
 20
167.5
 11
261.5
 21
167.5
 72
     1
 10
261.5
 20
167.5
 11
261.5
 21
133.5
 72
     1
 10
261.5
 20
133.5
 11
191.5
 21
133.5
 97
        0
 75
     0
 76
     1
 52
90.00001494311726
 41
37.5
 77
     0
 78
     1
 53
135.0000149431173
 43
0.0
 44
0.0
 45
-84.18987917773887
 46
-84.18992309230204
 79
     0
 98
        1
 10
191.5
 20
133.5
1001
TSA_
1071
        1
1071
       -1
1071
        9
1071
      121
1071
        0
1004

1040
0.0
1071
       49
  0
INSERT
  5
29B
330
286
100
AcDbEntity
  8
A--L1---
100
AcDbBlockReference
  2
W2DUM$2
 10
191.5
 20
133.5
 30
0.0
  0
LWPOLYLINE
  5
29C
330
286
100
AcDbEntity
  8
A--L1---
  6
Continuous
 62
     1
 48
400.0
100
AcDbPolyline
 90
        4
 70
     1
 43
0.0
 10
191.5
 20
133.5
 10
191.5
 20
167.5
 10
261.5
 20
167.5
 10
261.5
 20
133.5
1001
TSA_
1071
        1
1071
       -1
1071
        8
1071
       29
1071
        0
1004

1040
0.0
1071
        1
  0
LWPOLYLINE
  5
29D
330
286
100
AcDbEntity
  8
A--L1---
  6
Continuous
 62
     5
 48
400.0
100
AcDbPolyline
 90
        3
 70
     0
 43
0.0
 10
226.5
 20
124.5
 10
226.5
 20
73.5
 10
35.0
 20
73.5
1001
TSA_
1071
        1
1071
       -1
1071
        8
1071
      255
1071
        0
1004

1040
0.0
1071
        5
  0
LWPOLYLINE
  5
29E
330
286
100
AcDbEntity
  8
A--L1---
  6
DASHDOT2
 62
     1
 48
400.0
100
AcDbPolyline
 90
        2
 70
     1
 43
0.0
 10
228.5
 20
124.4999996499497
 42
1.0
 10
224.5
 20
124.5000003500503
 42
1.0
1001
TSA_
1071
        1
1071
       -1
1071
        9
1071
      125
1071
        0
1004

1040
0.0
1071
       34
  0
HATCH
  5
29F
330
286
100
AcDbEntity
  8
A--L1---
 62
     1
100
AcDbHatch
 10
0.0
 20
0.0
 30
0.0
210
0.0
220
0.0
230
1.0
  2
SOLID
 70
     1
 71
     1
 91
        1
 92
        1
 93
        2
 72
     2
 10
226.5
 20
124.5
 40
2.0
 50
359.9999899717978
 51
539.9999899717978
 73
     1
 72
     2
 10
226.5
 20
124.5
 40
2.0
 50
179.9999899717978
 51
359.9999899717978
 73
     1
 97
        0
 75
     0
 76
     1
 98
        1
 10
226.5
 20
124.5
1001
TSA_
1071
        1
1071
       -1
1071
        9
1071
      125
1071
        0
1004

1040
0.0
1071
       34
  0
INSERT
  5
2A0
330
286
100
AcDbEntity
  8
A--L1---
100
AcDbBlockReference
  2
W2DUM$2
 10
226.5
 20
124.5
 30
0.0
  0
LWPOLYLINE
  5
2A1
330
286
100
AcDbEntity
  8
A--L1---
  6
Continuous
 62
     2
 48
400.0
100
AcDbPolyline
 90
        2
 70
     1
 43
0.0
 10
228.5
 20
124.4999996499497
 42
1.0
 10
224.5
 20
124.5000003500503
 42
1.0
1001
TSA_
1071
        1
1071
       -1
1071
        8
1071
      125
1071
        0
1004

1040
0.0
1071
        7
  0
LWPOLYLINE
  5
2A2
330
286
100
AcDbEntity
  8
A--L1---
  6
Continuous
 62
     1
 48
400.0
100
AcDbPolyline
 90
        4
 70
     1
 43
0.0
 10
261.5
 20
167.5
 10
227.5
 20
167.5
 10
227.5
 20
237.5
 10
261.5
 20
237.5
1001
TSA_
1071
        1
1071
       -1
1071
        9
1071
      121
1071
        0
1004

1040
0.0
1071
       49
  0
HATCH
  5
2A3
330
286
100
AcDbEntity
  8
A--L1---
 62
     5
100
AcDbHatch
 10
0.0
 20
0.0
 30
0.0
210
0.0
220
0.0
230
1.0
  2
ANSI31
 70
     0
 71
     1
 91
        1
 92
        1
 93
        4
 72
     1
 10
261.5
 20
167.5
 11
227.5
 21
167.5
 72
     1
 10
227.5
 20
167.5
 11
227.5
 21
237.5
 72
     1
 10
227.5
 20
237.5
 11
261.5
 21
237.5
 72
     1
 10
261.5
 20
237.5
 11
261.5
 21
167.5
 97
        0
 75
     0
 76
     1
 52
90.00001494311726
 41
37.5
 77
     0
 78
     1
 53
135.0000149431173
 43
0.0
 44
0.0
 45
-84.18987917773887
 46
-84.18992309230204
 79
     0
 98
        1
 10
261.5
 20
167.5
1001
TSA_
1071
        1
1071
       -1
1071
        9
1071
      121
1071
        0
1004

1040
0.0
1071
       49
  0
INSERT
  5
2A4
330
286
100
AcDbEntity
  8
A--L1---
100
AcDbBlockReference
  2
W2DUM$2
 10
261.5
 20
167.5
 30
0.0
  0
LWPOLYLINE
  5
2A5
330
286
100
AcDbEntity
  8
A--L1---
  6
Continuous
 62
     1
 48
400.0
100
AcDbPolyline
 90
        4
 70
     1
 43
0.0
 10
261.5
 20
167.5
 10
227.5
 20
167.5
 10
227.5
 20
237.5
 10
261.5
 20
237.5
1001
TSA_
1071
        1
1071
       -1
1071
        8
1071
       29
1071
        0
1004

1040
0.0
1071
        1
  0
INSERT
  5
2A6
330
286
100
AcDbEntity
  8
A--L1---
100
AcDbBlockReference
  2
W2DUM$2
 10
205.0
 20
133.5
 30
0.0
  0
INSERT
  5
2A7
330
286
100
AcDbEntity
  8
A--L1---
100
AcDbBlockReference
  2
W2DUM$2
 10
261.5
 20
130.5
 30
0.0
  0
LWPOLYLINE
  5
2A8
330
286
100
AcDbEntity
  8
A--L1---
  6
Continuous
 62
     1
 48
400.0
100
AcDbPolyline
 90
       10
 70
     1
 43
0.0
 10
229.5
 20
130.5
 10
264.5
 20
130.5
 10
264.5
 20
165.5
 10
265.5
 20
165.5
 10
265.5
 20
130.5
 10
273.199951171875
 20
130.5
 10
273.199951171875
 20
121.7999877929688
 10
264.5
 20
121.7999877929688
 10
264.5
 20
129.5
 10
229.5
 20
129.5
1001
TSA_
1071
        1
1071
       -1
1071
        8
1071
      125
1071
        0
1004

1040
0.0
1071
       10
  0
LWPOLYLINE
  5
2A9
330
286
100
AcDbEntity
  8
A--L1---
  6
Continuous
 62
     1
 48
400.0
100
AcDbPolyline
 90
        4
 70
     1
 43
0.0
 10
265.5
 20
129.5
 10
272.199951171875
 20
129.5
 10
272.199951171875
 20
122.7999877929688
 10
265.5
 20
122.7999877929688
1001
TSA_
1071
        1
1071
       -1
1071
        8
1071
      125
1071
        0
1004

1040
0.0
1071
       10
  0
LWPOLYLINE
  5
2AA
330
286
100
AcDbEntity
  8
A--L1---
  6
Continuous
 62
     5
 48
400.0
100
AcDbPolyline
 90
        3
 70
     0
 43
0.0
 10
244.5
 20
205.0
 10
295.0
 20
205.0
 10
295.0
 20
150.0
1001
TSA_
1071
        1
1071
       -1
1071
        8
1071
      255
1071
        0
1004

1040
0.0
1071
        5
  0
LWPOLYLINE
  5
2AB
330
286
100
AcDbEntity
  8
A--L1---
  6
DASHDOT2
 62
     1
 48
400.0
100
AcDbPolyline
 90
        2
 70
     1
 43
0.0
 10
246.5
 20
204.9999996499497
 42
1.0
 10
242.5
 20
205.0000003500503
 42
1.0
1001
TSA_
1071
        1
1071
       -1
1071
        9
1071
      125
1071
        0
1004

1040
0.0
1071
       34
  0
HATCH
  5
2AC
330
286
100
AcDbEntity
  8
A--L1---
 62
     1
100
AcDbHatch
 10
0.0
 20
0.0
 30
0.0
210
0.0
220
0.0
230
1.0
  2
SOLID
 70
     1
 71
     1
 91
        1
 92
        1
 93
        2
 72
     2
 10
244.5
 20
205.0
 40
2.0
 50
359.9999899717978
 51
539.9999899717978
 73
     1
 72
     2
 10
244.5
 20
205.0
 40
2.0
 50
179.9999899717978
 51
359.9999899717978
 73
     1
 97
        0
 75
     0
 76
     1
 98
        1
 10
244.5
 20
205.0
1001
TSA_
1071
        1
1071
       -1
1071
        9
1071
      125
1071
        0
1004

1040
0.0
1071
       34
  0
INSERT
  5
2AD
330
286
100
AcDbEntity
  8
A--L1---
100
AcDbBlockReference
  2
W2DUM$2
 10
244.5
 20
205.0
 30
0.0
  0
LWPOLYLINE
  5
2AE
330
286
100
AcDbEntity
  8
A--L1---
  6
Continuous
 62
     2
 48
400.0
100
AcDbPolyline
 90
        2
 70
     1
 43
0.0
 10
246.5
 20
204.9999996499497
 42
1.0
 10
242.5
 20
205.0000003500503
 42
1.0
1001
TSA_
1071
        1
1071
       -1
1071
        8
1071
      125
1071
        0
1004

1040
0.0
1071
        7
  0
LWPOLYLINE
  5
2AF
330
286
100
AcDbEntity
  8
A--L1---
  6
DOT2
 62
     1
 48
400.0
100
AcDbPolyline
 90
        4
 70
     1
 43
0.0
 10
0.0
 20
130.5
 10
261.5
 20
130.5
 10
261.5
 20
124.5
 10
0.0
 20
124.5
1001
TSA_
1071
        1
1071
       -1
1071
        9
1071
      113
1071
        0
1004

1040
0.0
1071
       29
  0
HATCH
  5
2B0
330
286
100
AcDbEntity
  8
A--L1---
 62
     5
100
AcDbHatch
 10
0.0
 20
0.0
 30
0.0
210
0.0
220
0.0
230
1.0
  2
ANSI31
 70
     0
 71
     1
 91
        1
 92
        1
 93
        4
 72
     1
 10
0.0
 20
130.5
 11
261.5
 21
130.5
 72
     1
 10
261.5
 20
130.5
 11
261.5
 21
124.5
 72
     1
 10
261.5
 20
124.5
 11
0.0
 21
124.5
 72
     1
 10
0.0
 20
124.5
 11
0.0
 21
130.5
 97
        0
 75
     0
 76
     1
 52
45.00000747155863
 41
40.0
 77
     0
 78
     1
 53
90.00000747155863
 43
0.0
 44
0.0
 45
-126.9999999999989
 46
-0.0000165612188781
 79
     0
 98
        1
 10
0.0
 20
130.5
1001
TSA_
1071
        1
1071
       -1
1071
        9
1071
      113
1071
        0
1004

1040
0.0
1071
       29
  0
INSERT
  5
2B1
330
286
100
AcDbEntity
  8
A--L1---
100
AcDbBlockReference
  2
W2DUM$2
 10
0.0
 20
130.5
 30
0.0
  0
LWPOLYLINE
  5
2B2
330
286
100
AcDbEntity
  8
A--L1---
  6
Continuous
 62
     1
 48
400.0
100
AcDbPolyline
 90
        4
 70
     0
 43
0.0
 10
0.0
 20
130.5
 10
261.5
 20
130.5
 10
261.5
 20
124.5
 10
0.0
 20
124.5
1001
TSA_
1071
        1
1071
       -1
1071
        8
1071
      125
1071
        0
1004

1040
0.0
1071
       10
  0
LWPOLYLINE
  5
2B3
330
286
100
AcDbEntity
  8
A--L1---
  6
DOT2
 62
     1
 48
400.0
100
AcDbPolyline
 90
        4
 70
     1
 43
0.0
 10
270.5
 20
395.0
 10
270.5
 20
133.5
 10
264.5
 20
133.5
 10
264.5
 20
395.0
1001
TSA_
1071
        1
1071
       -1
1071
        9
1071
      113
1071
        0
1004

1040
0.0
1071
       29
  0
HATCH
  5
2B4
330
286
100
AcDbEntity
  8
A--L1---
 62
     5
100
AcDbHatch
 10
0.0
 20
0.0
 30
0.0
210
0.0
220
0.0
230
1.0
  2
ANSI31
 70
     0
 71
     1
 91
        1
 92
        1
 93
        4
 72
     1
 10
270.5
 20
395.0
 11
270.5
 21
133.5
 72
     1
 10
270.5
 20
133.5
 11
264.5
 21
133.5
 72
     1
 10
264.5
 20
133.5
 11
264.5
 21
395.0
 72
     1
 10
264.5
 20
395.0
 11
270.5
 21
395.0
 97
        0
 75
     0
 76
     1
 52
45.00000747155863
 41
40.0
 77
     0
 78
     1
 53
90.00000747155863
 43
0.0
 44
0.0
 45
-126.9999999999989
 46
-0.0000165612188781
 79
     0
 98
        1
 10
270.5
 20
395.0
1001
TSA_
1071
        1
1071
       -1
1071
        9
1071
      113
1071
        0
1004

1040
0.0
1071
       29
  0
INSERT
  5
2B5
330
286
100
AcDbEntity
  8
A--L1---
100
AcDbBlockReference
  2
W2DUM$2
 10
270.5
 20
395.0
 30
0.0
  0
LWPOLYLINE
  5
2B6
330
286
100
AcDbEntity
  8
A--L1---
  6
Continuous
 62
     1
 48
400.0
100
AcDbPolyline
 90
        4
 70
     0
 43
0.0
 10
270.5
 20
395.0
 10
270.5
 20
133.5
 10
264.5
 20
133.5
 10
264.5
 20
395.0
1001
TSA_
1071
        1
1071
       -1
1071
        8
1071
      125
1071
        0
1004

1040
0.0
1071
       10
  0
ENDBLK
  5
2B8
330
286
100
AcDbEntity
  8
0
100
AcDbBlockEnd
  0
BLOCK
  5
289
330
287
100
AcDbEntity
  8
0
100
AcDbBlockBegin
  2
WSCHROEF$2
 70
     0
 10
0.0
 20
0.0
 30
0.0
  3
WSCHROEF$2
  1

  0
LWPOLYLINE
  5
288
330
287
100
AcDbEntity
  8
A--L1---
  6
Continuous
 62
     5
 48
400.0
100
AcDbPolyline
 90
       12
 70
     0
 43
0.0
 10
4.0
 20
2.0
 10
8.0
 20
-2.0
 10
12.0
 20
2.0
 10
16.0
 20
-2.0
 10
20.0
 20
2.0
 10
24.0
 20
-2.0
 10
28.0
 20
2.0
 10
30.0
 20
0.0
 10
0.0
 20
0.0
 10
-2.0
 20
2.5
 10
-2.0
 20
-2.5
 10
0.0
 20
0.0
1001
TSA_
1071
        1
1071
       -1
1071
        8
1071
      255
1071
        0
1004

1040
0.0
1071
        5
  0
ENDBLK
  5
28A
330
287
100
AcDbEntity
  8
0
100
AcDbBlockEnd
  0
BLOCK
  5
295
330
28D
100
AcDbEntity
  8
0
100
AcDbBlockBegin
  2
WBOLBENAM$2
 70
     0
 10
0.0
 20
0.0
 30
0.0
  3
WBOLBENAM$2
  1

  0
LWPOLYLINE
  5
28E
330
28D
100
AcDbEntity
  8
A--L1---
  6
DASHDOT2
 62
     1
 48
400.0
100
AcDbPolyline
 90
        2
 70
     1
 43
0.0
 10
1.999999999999969
 20
-0.0000003500502928
 42
1.0
 10
-1.999999999999969
 20
0.0000003500502928
 42
1.0
1001
TSA_
1071
        1
1071
       -1
1071
        9
1071
      125
1071
        0
1004

1040
0.0
1071
       34
  0
HATCH
  5
28F
330
28D
100
AcDbEntity
  8
A--L1---
 62
     1
100
AcDbHatch
 10
0.0
 20
0.0
 30
0.0
210
0.0
220
0.0
230
1.0
  2
SOLID
 70
     1
 71
     1
 91
        1
 92
        1
 93
        2
 72
     2
 10
0.0
 20
0.0
 40
2.0
 50
359.9999899717978
 51
539.9999899717978
 73
     1
 72
     2
 10
0.0
 20
0.0
 40
2.0
 50
179.9999899717978
 51
359.9999899717978
 73
     1
 97
        0
 75
     0
 76
     1
 98
        1
 10
1.999999999999969
 20
-0.0000003500502928
1001
TSA_
1071
        1
1071
       -1
1071
        9
1071
      125
1071
        0
1004

1040
0.0
1071
       34
  0
INSERT
  5
293
330
28D
100
AcDbEntity
  8
A--L1---
100
AcDbBlockReference
  2
W2DUM$2
 10
1.999999999999969
 20
-0.0000003500502928
 30
0.0
  0
LWPOLYLINE
  5
294
330
28D
100
AcDbEntity
  8
A--L1---
  6
Continuous
 62
     2
 48
400.0
100
AcDbPolyline
 90
        2
 70
     1
 43
0.0
 10
1.999999999999969
 20
-0.0000003500502928
 42
1.0
 10
-1.999999999999969
 20
0.0000003500502928
 42
1.0
1001
TSA_
1071
        1
1071
       -1
1071
        8
1071
      125
1071
        0
1004

1040
0.0
1071
        7
  0
ENDBLK
  5
296
330
28D
100
AcDbEntity
  8
0
100
AcDbBlockEnd
  0
BLOCK
  5
291
330
290
100
AcDbEntity
  8
0
100
AcDbBlockBegin
  2
W2DUM$2
 70
     0
 10
0.0
 20
0.0
 30
0.0
  3
W2DUM$2
  1

  0
ENDBLK
  5
292
330
290
100
AcDbEntity
  8
0
100
AcDbBlockEnd
  0
BLOCK
  5
30A
330
2C1
100
AcDbEntity
  8
0
100
AcDbBlockBegin
  2
BZSD208$2
 70
     0
 10
0.0
 20
0.0
 30
0.0
  3
BZSD208$2
  1

  0
INSERT
  5
304
330
2C1
100
AcDbEntity
  8
A--L1---
100
AcDbBlockReference
  2
BDET1-208$2
 10
335.0
 20
607.5
 30
0.0
  0
LWPOLYLINE
  5
305
330
2C1
100
AcDbEntity
  8
A--L107-
  6
Continuous
 62
     1
 48
400.0
100
AcDbPolyline
 90
        2
 70
     0
 43
0.0
 10
1000.0
 20
295.0
 10
100.0
 20
295.0
1001
TSA_
1071
        1
1071
        2
1071
        8
1071
      255
1071
        0
1004

1040
0.0
1071
        1
  0
LWPOLYLINE
  5
306
330
2C1
100
AcDbEntity
  8
A--L107-
  6
Continuous
 62
     1
 48
400.0
100
AcDbPolyline
 90
        2
 70
     0
 43
0.0
 10
1000.0
 20
172.5
 10
100.0
 20
172.5
1001
TSA_
1071
        1
1071
        3
1071
        8
1071
      255
1071
        0
1004

1040
0.0
1071
        1
  0
TEXT
  5
307
330
2C1
100
AcDbEntity
  8
A--T1---
 62
     3
100
AcDbText
 10
120.0
 20
215.0
 30
0.0
 40
14.0
  1
Detail: 208
  7
TSA-7
100
AcDbText
1001
TSA_
1071
        1
1071
        4
1071
        6
1071
      127
1071
        0
1004

1040
0.0
1071
        7
  0
LWPOLYLINE
  5
308
330
2C1
100
AcDbEntity
  8
A--L98--
  6
Continuous
 62
     1
 48
400.0
100
AcDbPolyline
 90
        4
 70
     1
 43
0.0
 10
0.0
 20
0.0
 10
0.0
 20
1485.0
 10
1050.0
 20
1485.0
 10
1050.0
 20
0.0
1001
TSA_
1071
        1
1071
        5
1071
        8
1071
      255
1071
        0
1004

1040
0.0
1071
        1
  0
LWPOLYLINE
  5
309
330
2C1
100
AcDbEntity
  8
A--L98--
  6
Continuous
 62
     1
 48
400.0
100
AcDbPolyline
 90
        4
 70
     1
 43
0.0
 10
100.0
 20
172.5
 10
100.0
 20
1435.0
 10
1000.0
 20
1435.0
 10
1000.0
 20
172.5
1001
TSA_
1071
        1
1071
        6
1071
        8
1071
      255
1071
        0
1004

1040
0.0
1071
        1
  0
ENDBLK
  5
30B
330
2C1
100
AcDbEntity
  8
0
100
AcDbBlockEnd
  0
BLOCK
  5
302
330
2C2
100
AcDbEntity
  8
0
100
AcDbBlockBegin
  2
BDET1-208$2
 70
     0
 10
0.0
 20
0.0
 30
0.0
  3
BDET1-208$2
  1

  0
INSERT
  5
2C7
330
2C2
100
AcDbEntity
  8
A--L1---
100
AcDbBlockReference
  2
BSCHROEF$2
 10
226.5
 20
124.5
 30
0.0
 50
89.99999999742762
1001
TSA_
1071
        1
1071
       -1
1071
        2
1071
      255
1071
        0
1004

1040
0.0
  0
TEXT
  5
2C8
330
2C2
100
AcDbEntity
  8
A--T108-
 62
     1
100
AcDbText
 10
35.0
 20
78.5
 30
0.0
 40
3.6
  1
ROCKPANEL RINGNAGEL
  7
TSA-0_18
100
AcDbText
1001
TSA_
1071
        1
1071
       -1
1071
        6
1071
       97
1071
        0
1004

1040
0.0
1071
       72
  0
INSERT
  5
2C9
330
2C2
100
AcDbEntity
  8
A--L1---
100
AcDbBlockReference
  2
BSCHROEF$2
 10
270.5
 20
150.5
 30
0.0
 50
180.0000000051448
1001
TSA_
1071
        1
1071
       -1
1071
        2
1071
      255
1071
        0
1004

1040
0.0
  0
TEXT
  5
2CA
330
2C2
100
AcDbEntity
  8
A--T108-
 62
     1
100
AcDbText
 10
300.0
 20
195.0
 30
0.0
 40
3.6
  1
REGELWERK 34X70MM
  7
TSA-0_18
100
AcDbText
1001
TSA_
1071
        1
1071
       -1
1071
        6
1071
       97
1071
        0
1004

1040
0.0
1071
       72
  0
TEXT
  5
2CB
330
2C2
100
AcDbEntity
  8
A--T108-
 62
     1
100
AcDbText
 10
300.0
 20
180.0
 30
0.0
 40
3.6
  1
VOEGBAND
  7
TSA-0_18
100
AcDbText
1001
TSA_
1071
        1
1071
       -1
1071
        6
1071
       97
1071
        0
1004

1040
0.0
1071
       72
  0
TEXT
  5
2CC
330
2C2
100
AcDbEntity
  8
A--T108-
 62
     1
100
AcDbText
 10
300.0
 20
165.0
 30
0.0
 40
3.6
  1
HOEKPROFIEL ROCKPANEL TYPE D
  7
TSA-0_18
100
AcDbText
1001
TSA_
1071
        1
1071
       -1
1071
        6
1071
       97
1071
        0
1004

1040
0.0
1071
       72
  0
TEXT
  5
2CD
330
2C2
100
AcDbEntity
  8
A--T108-
 62
     1
100
AcDbText
 10
300.0
 20
150.0
 30
0.0
 40
3.6
  1
ROCKPANEL 6 OF 8MM
  7
TSA-0_18
100
AcDbText
1001
TSA_
1071
        1
1071
       -1
1071
        6
1071
       97
1071
        0
1004

1040
0.0
1071
       72
  0
INSERT
  5
2D8
330
2C2
100
AcDbEntity
  8
A--L1---
100
AcDbBlockReference
  2
BBOLBENAM$2
 10
263.0
 20
205.0
 30
0.0
1001
TSA_
1071
        1
1071
       -1
1071
        2
1071
      255
1071
        0
1004

1040
0.0
  0
INSERT
  5
2D9
330
2C2
100
AcDbEntity
  8
A--L1---
100
AcDbBlockReference
  2
BBOLBENAM$2
 10
267.75
 20
205.0
 30
0.0
1001
TSA_
1071
        1
1071
       -1
1071
        2
1071
      255
1071
        0
1004

1040
0.0
  0
LWPOLYLINE
  5
2DA
330
2C2
100
AcDbEntity
  8
A--L1---
  6
Continuous
 62
     1
 48
400.0
100
AcDbPolyline
 90
        4
 70
     1
 43
0.0
 10
191.5
 20
133.5
 10
191.5
 20
167.5
 10
261.5
 20
167.5
 10
261.5
 20
133.5
1001
TSA_
1071
        1
1071
       -1
1071
        9
1071
      121
1071
        0
1004

1040
0.0
1071
       49
  0
HATCH
  5
2DB
330
2C2
100
AcDbEntity
  8
A--L1---
 62
     5
100
AcDbHatch
 10
0.0
 20
0.0
 30
0.0
210
0.0
220
0.0
230
1.0
  2
ANSI31
 70
     0
 71
     1
 91
        1
 92
        1
 93
        4
 72
     1
 10
191.5
 20
133.5
 11
191.5
 21
167.5
 72
     1
 10
191.5
 20
167.5
 11
261.5
 21
167.5
 72
     1
 10
261.5
 20
167.5
 11
261.5
 21
133.5
 72
     1
 10
261.5
 20
133.5
 11
191.5
 21
133.5
 97
        0
 75
     0
 76
     1
 52
90.00001494311726
 41
10.0
 77
     0
 78
     1
 53
135.0000149431173
 43
0.0
 44
0.0
 45
-22.45063444739703
 46
-22.45064615794721
 79
     0
 98
        1
 10
191.5
 20
133.5
1001
TSA_
1071
        1
1071
       -1
1071
        9
1071
      121
1071
        0
1004

1040
0.0
1071
       49
  0
INSERT
  5
2DC
330
2C2
100
AcDbEntity
  8
A--L1---
100
AcDbBlockReference
  2
B2DUM$2
 10
191.5
 20
133.5
 30
0.0
  0
LWPOLYLINE
  5
2DD
330
2C2
100
AcDbEntity
  8
A--L1---
  6
Continuous
 62
     2
 48
400.0
100
AcDbPolyline
 90
        4
 70
     1
 43
0.0
 10
191.5
 20
133.5
 10
191.5
 20
167.5
 10
261.5
 20
167.5
 10
261.5
 20
133.5
1001
TSA_
1071
        1
1071
       -1
1071
        8
1071
       97
1071
        0
1004

1040
0.0
1071
        2
  0
LWPOLYLINE
  5
2DE
330
2C2
100
AcDbEntity
  8
A--L1---
  6
Continuous
 62
     5
 48
400.0
100
AcDbPolyline
 90
        3
 70
     0
 43
0.0
 10
226.5
 20
124.5
 10
226.5
 20
73.5
 10
35.0
 20
73.5
1001
TSA_
1071
        1
1071
       -1
1071
        8
1071
      255
1071
        0
1004

1040
0.0
1071
        5
  0
LWPOLYLINE
  5
2DF
330
2C2
100
AcDbEntity
  8
A--L1---
  6
DASHDOT2
 62
     1
 48
400.0
100
AcDbPolyline
 90
        2
 70
     1
 43
0.0
 10
228.5
 20
124.4999996499497
 42
1.0
 10
224.5
 20
124.5000003500503
 42
1.0
1001
TSA_
1071
        1
1071
       -1
1071
        9
1071
      125
1071
        0
1004

1040
0.0
1071
       34
  0
HATCH
  5
2E0
330
2C2
100
AcDbEntity
  8
A--L1---
 62
     1
100
AcDbHatch
 10
0.0
 20
0.0
 30
0.0
210
0.0
220
0.0
230
1.0
  2
SOLID
 70
     1
 71
     1
 91
        1
 92
        1
 93
        2
 72
     2
 10
226.5
 20
124.5
 40
2.0
 50
359.9999899717978
 51
539.9999899717978
 73
     1
 72
     2
 10
226.5
 20
124.5
 40
2.0
 50
179.9999899717978
 51
359.9999899717978
 73
     1
 97
        0
 75
     0
 76
     1
 98
        1
 10
226.5
 20
124.5
1001
TSA_
1071
        1
1071
       -1
1071
        9
1071
      125
1071
        0
1004

1040
0.0
1071
       34
  0
INSERT
  5
2E1
330
2C2
100
AcDbEntity
  8
A--L1---
100
AcDbBlockReference
  2
B2DUM$2
 10
226.5
 20
124.5
 30
0.0
  0
LWPOLYLINE
  5
2E2
330
2C2
100
AcDbEntity
  8
A--L1---
  6
Continuous
 62
     2
 48
400.0
100
AcDbPolyline
 90
        2
 70
     1
 43
0.0
 10
228.5
 20
124.4999996499497
 42
1.0
 10
224.5
 20
124.5000003500503
 42
1.0
1001
TSA_
1071
        1
1071
       -1
1071
        8
1071
      125
1071
        0
1004

1040
0.0
1071
        7
  0
LWPOLYLINE
  5
2E3
330
2C2
100
AcDbEntity
  8
A--L1---
  6
Continuous
 62
     1
 48
400.0
100
AcDbPolyline
 90
        4
 70
     1
 43
0.0
 10
261.5
 20
167.5
 10
227.5
 20
167.5
 10
227.5
 20
237.5
 10
261.5
 20
237.5
1001
TSA_
1071
        1
1071
       -1
1071
        9
1071
      121
1071
        0
1004

1040
0.0
1071
       49
  0
HATCH
  5
2E4
330
2C2
100
AcDbEntity
  8
A--L1---
 62
     5
100
AcDbHatch
 10
0.0
 20
0.0
 30
0.0
210
0.0
220
0.0
230
1.0
  2
ANSI31
 70
     0
 71
     1
 91
        1
 92
        1
 93
        4
 72
     1
 10
261.5
 20
167.5
 11
227.5
 21
167.5
 72
     1
 10
227.5
 20
167.5
 11
227.5
 21
237.5
 72
     1
 10
227.5
 20
237.5
 11
261.5
 21
237.5
 72
     1
 10
261.5
 20
237.5
 11
261.5
 21
167.5
 97
        0
 75
     0
 76
     1
 52
90.00001494311726
 41
10.0
 77
     0
 78
     1
 53
135.0000149431173
 43
0.0
 44
0.0
 45
-22.45063444739703
 46
-22.45064615794721
 79
     0
 98
        1
 10
261.5
 20
167.5
1001
TSA_
1071
        1
1071
       -1
1071
        9
1071
      121
1071
        0
1004

1040
0.0
1071
       49
  0
INSERT
  5
2E5
330
2C2
100
AcDbEntity
  8
A--L1---
100
AcDbBlockReference
  2
B2DUM$2
 10
261.5
 20
167.5
 30
0.0
  0
LWPOLYLINE
  5
2E6
330
2C2
100
AcDbEntity
  8
A--L1---
  6
Continuous
 62
     2
 48
400.0
100
AcDbPolyline
 90
        4
 70
     1
 43
0.0
 10
261.5
 20
167.5
 10
227.5
 20
167.5
 10
227.5
 20
237.5
 10
261.5
 20
237.5
1001
TSA_
1071
        1
1071
       -1
1071
        8
1071
       97
1071
        0
1004

1040
0.0
1071
        2
  0
LWPOLYLINE
  5
2E7
330
2C2
100
AcDbEntity
  8
A--L1---
  6
DASHED2
 62
     1
 48
400.0
100
AcDbPolyline
 90
        4
 70
     1
 43
0.0
 10
205.0
 20
133.5
 10
261.5
 20
133.5
 10
261.5
 20
130.5
 10
205.0
 20
130.5
1001
TSA_
1071
        1
1071
       -1
1071
        9
1071
       97
1071
        0
1004

1040
0.0
1071
       71
  0
HATCH
  5
2E8
330
2C2
100
AcDbEntity
  8
A--L1---
 62
     5
100
AcDbHatch
 10
0.0
 20
0.0
 30
0.0
210
0.0
220
0.0
230
1.0
  2
ANSI31
 70
     0
 71
     1
 91
        1
 92
        1
 93
        4
 72
     1
 10
205.0
 20
133.5
 11
261.5
 21
133.5
 72
     1
 10
261.5
 20
133.5
 11
261.5
 21
130.5
 72
     1
 10
261.5
 20
130.5
 11
205.0
 21
130.5
 72
     1
 10
205.0
 20
130.5
 11
205.0
 21
133.5
 97
        0
 75
     0
 76
     1
 52
135.0000224146759
 41
1.0
 77
     0
 78
     1
 53
180.0000224146759
 43
0.0
 44
0.0
 45
0.0000012420914164
 46
-3.174999999999757
 79
     0
 98
        1
 10
205.0
 20
133.5
1001
TSA_
1071
        1
1071
       -1
1071
        9
1071
       97
1071
        0
1004

1040
0.0
1071
       71
  0
LWPOLYLINE
  5
2E9
330
2C2
100
AcDbEntity
  8
A--L1---
  6
DASHED2
 62
     1
 48
400.0
100
AcDbPolyline
 90
        4
 70
     1
 43
0.0
 10
205.0
 20
133.5
 10
261.5
 20
133.5
 10
261.5
 20
130.5
 10
205.0
 20
130.5
1001
TSA_
1071
        1
1071
       -1
1071
        9
1071
       97
1071
        0
1004

1040
0.0
1071
       76
  0
HATCH
  5
2EA
330
2C2
100
AcDbEntity
  8
A--L1---
 62
     5
100
AcDbHatch
 10
0.0
 20
0.0
 30
0.0
210
0.0
220
0.0
230
1.0
  2
ANSI31
 70
     0
 71
     1
 91
        1
 92
        1
 93
        4
 72
     1
 10
205.0
 20
133.5
 11
261.5
 21
133.5
 72
     1
 10
261.5
 20
133.5
 11
261.5
 21
130.5
 72
     1
 10
261.5
 20
130.5
 11
205.0
 21
130.5
 72
     1
 10
205.0
 20
130.5
 11
205.0
 21
133.5
 97
        0
 75
     0
 76
     1
 52
45.00000747155863
 41
1.0
 77
     0
 78
     1
 53
90.00000747155863
 43
0.0
 44
0.0
 45
-3.174999999999973
 46
-0.0000004140304721
 79
     0
 98
        1
 10
205.0
 20
133.5
1001
TSA_
1071
        1
1071
       -1
1071
        9
1071
       97
1071
        0
1004

1040
0.0
1071
       76
  0
INSERT
  5
2EB
330
2C2
100
AcDbEntity
  8
A--L1---
100
AcDbBlockReference
  2
B2DUM$2
 10
205.0
 20
133.5
 30
0.0
  0
LWPOLYLINE
  5
2EC
330
2C2
100
AcDbEntity
  8
A--L1---
  6
Continuous
 62
     1
 48
400.0
100
AcDbPolyline
 90
        4
 70
     1
 43
0.0
 10
205.0
 20
133.5
 10
261.5
 20
133.5
 10
261.5
 20
130.5
 10
205.0
 20
130.5
1001
TSA_
1071
        1
1071
       -1
1071
        8
1071
       97
1071
        0
1004

1040
0.0
1071
       10
  0
LWPOLYLINE
  5
2ED
330
2C2
100
AcDbEntity
  8
A--L1---
  6
DASHED2
 62
     1
 48
400.0
100
AcDbPolyline
 90
        4
 70
     1
 43
0.0
 10
261.5
 20
130.5
 10
261.5
 20
218.5
 10
264.5
 20
218.5
 10
264.5
 20
130.5
1001
TSA_
1071
        1
1071
       -1
1071
        9
1071
       97
1071
        0
1004

1040
0.0
1071
       71
  0
HATCH
  5
2EE
330
2C2
100
AcDbEntity
  8
A--L1---
 62
     5
100
AcDbHatch
 10
0.0
 20
0.0
 30
0.0
210
0.0
220
0.0
230
1.0
  2
ANSI31
 70
     0
 71
     1
 91
        1
 92
        1
 93
        4
 72
     1
 10
261.5
 20
130.5
 11
261.5
 21
218.5
 72
     1
 10
261.5
 20
218.5
 11
264.5
 21
218.5
 72
     1
 10
264.5
 20
218.5
 11
264.5
 21
130.5
 72
     1
 10
264.5
 20
130.5
 11
261.5
 21
130.5
 97
        0
 75
     0
 76
     1
 52
135.0000224146759
 41
1.0
 77
     0
 78
     1
 53
180.0000224146759
 43
0.0
 44
0.0
 45
0.0000012420914164
 46
-3.174999999999757
 79
     0
 98
        1
 10
261.5
 20
130.5
1001
TSA_
1071
        1
1071
       -1
1071
        9
1071
       97
1071
        0
1004

1040
0.0
1071
       71
  0
LWPOLYLINE
  5
2EF
330
2C2
100
AcDbEntity
  8
A--L1---
  6
DASHED2
 62
     1
 48
400.0
100
AcDbPolyline
 90
        4
 70
     1
 43
0.0
 10
261.5
 20
130.5
 10
261.5
 20
218.5
 10
264.5
 20
218.5
 10
264.5
 20
130.5
1001
TSA_
1071
        1
1071
       -1
1071
        9
1071
       97
1071
        0
1004

1040
0.0
1071
       76
  0
HATCH
  5
2F0
330
2C2
100
AcDbEntity
  8
A--L1---
 62
     5
100
AcDbHatch
 10
0.0
 20
0.0
 30
0.0
210
0.0
220
0.0
230
1.0
  2
ANSI31
 70
     0
 71
     1
 91
        1
 92
        1
 93
        4
 72
     1
 10
261.5
 20
130.5
 11
261.5
 21
218.5
 72
     1
 10
261.5
 20
218.5
 11
264.5
 21
218.5
 72
     1
 10
264.5
 20
218.5
 11
264.5
 21
130.5
 72
     1
 10
264.5
 20
130.5
 11
261.5
 21
130.5
 97
        0
 75
     0
 76
     1
 52
45.00000747155863
 41
1.0
 77
     0
 78
     1
 53
90.00000747155863
 43
0.0
 44
0.0
 45
-3.174999999999973
 46
-0.0000004140304721
 79
     0
 98
        1
 10
261.5
 20
130.5
1001
TSA_
1071
        1
1071
       -1
1071
        9
1071
       97
1071
        0
1004

1040
0.0
1071
       76
  0
INSERT
  5
2F1
330
2C2
100
AcDbEntity
  8
A--L1---
100
AcDbBlockReference
  2
B2DUM$2
 10
261.5
 20
130.5
 30
0.0
  0
LWPOLYLINE
  5
2F2
330
2C2
100
AcDbEntity
  8
A--L1---
  6
Continuous
 62
     1
 48
400.0
100
AcDbPolyline
 90
        4
 70
     1
 43
0.0
 10
261.5
 20
130.5
 10
261.5
 20
218.5
 10
264.5
 20
218.5
 10
264.5
 20
130.5
1001
TSA_
1071
        1
1071
       -1
1071
        8
1071
       97
1071
        0
1004

1040
0.0
1071
       10
  0
LWPOLYLINE
  5
2F3
330
2C2
100
AcDbEntity
  8
A--L1---
  6
Continuous
 62
     1
 48
400.0
100
AcDbPolyline
 90
       10
 70
     1
 43
0.0
 10
229.5
 20
130.5
 10
264.5
 20
130.5
 10
264.5
 20
165.5
 10
265.5
 20
165.5
 10
265.5
 20
130.5
 10
273.199951171875
 20
130.5
 10
273.199951171875
 20
121.7999877929688
 10
264.5
 20
121.7999877929688
 10
264.5
 20
129.5
 10
229.5
 20
129.5
1001
TSA_
1071
        1
1071
       -1
1071
        8
1071
      125
1071
        0
1004

1040
0.0
1071
       10
  0
LWPOLYLINE
  5
2F4
330
2C2
100
AcDbEntity
  8
A--L1---
  6
Continuous
 62
     1
 48
400.0
100
AcDbPolyline
 90
        4
 70
     1
 43
0.0
 10
265.5
 20
129.5
 10
272.199951171875
 20
129.5
 10
272.199951171875
 20
122.7999877929688
 10
265.5
 20
122.7999877929688
1001
TSA_
1071
        1
1071
       -1
1071
        8
1071
      125
1071
        0
1004

1040
0.0
1071
       10
  0
LWPOLYLINE
  5
2F5
330
2C2
100
AcDbEntity
  8
A--L1---
  6
Continuous
 62
     5
 48
400.0
100
AcDbPolyline
 90
        3
 70
     0
 43
0.0
 10
244.5
 20
205.0
 10
295.0
 20
205.0
 10
295.0
 20
150.0
1001
TSA_
1071
        1
1071
       -1
1071
        8
1071
      255
1071
        0
1004

1040
0.0
1071
        5
  0
LWPOLYLINE
  5
2F6
330
2C2
100
AcDbEntity
  8
A--L1---
  6
DASHDOT2
 62
     1
 48
400.0
100
AcDbPolyline
 90
        2
 70
     1
 43
0.0
 10
246.5
 20
204.9999996499497
 42
1.0
 10
242.5
 20
205.0000003500503
 42
1.0
1001
TSA_
1071
        1
1071
       -1
1071
        9
1071
      125
1071
        0
1004

1040
0.0
1071
       34
  0
HATCH
  5
2F7
330
2C2
100
AcDbEntity
  8
A--L1---
 62
     1
100
AcDbHatch
 10
0.0
 20
0.0
 30
0.0
210
0.0
220
0.0
230
1.0
  2
SOLID
 70
     1
 71
     1
 91
        1
 92
        1
 93
        2
 72
     2
 10
244.5
 20
205.0
 40
2.0
 50
359.9999899717978
 51
539.9999899717978
 73
     1
 72
     2
 10
244.5
 20
205.0
 40
2.0
 50
179.9999899717978
 51
359.9999899717978
 73
     1
 97
        0
 75
     0
 76
     1
 98
        1
 10
244.5
 20
205.0
1001
TSA_
1071
        1
1071
       -1
1071
        9
1071
      125
1071
        0
1004

1040
0.0
1071
       34
  0
INSERT
  5
2F8
330
2C2
100
AcDbEntity
  8
A--L1---
100
AcDbBlockReference
  2
B2DUM$2
 10
244.5
 20
205.0
 30
0.0
  0
LWPOLYLINE
  5
2F9
330
2C2
100
AcDbEntity
  8
A--L1---
  6
Continuous
 62
     2
 48
400.0
100
AcDbPolyline
 90
        2
 70
     1
 43
0.0
 10
246.5
 20
204.9999996499497
 42
1.0
 10
242.5
 20
205.0000003500503
 42
1.0
1001
TSA_
1071
        1
1071
       -1
1071
        8
1071
      125
1071
        0
1004

1040
0.0
1071
        7
  0
LWPOLYLINE
  5
2FA
330
2C2
100
AcDbEntity
  8
A--L1---
  6
DOT2
 62
     1
 48
400.0
100
AcDbPolyline
 90
        4
 70
     1
 43
0.0
 10
0.0
 20
130.5
 10
261.5
 20
130.5
 10
261.5
 20
124.5
 10
0.0
 20
124.5
1001
TSA_
1071
        1
1071
       -1
1071
        9
1071
      113
1071
        0
1004

1040
0.0
1071
       29
  0
HATCH
  5
2FB
330
2C2
100
AcDbEntity
  8
A--L1---
 62
     5
100
AcDbHatch
 10
0.0
 20
0.0
 30
0.0
210
0.0
220
0.0
230
1.0
  2
ANSI31
 70
     0
 71
     1
 91
        1
 92
        1
 93
        4
 72
     1
 10
0.0
 20
130.5
 11
261.5
 21
130.5
 72
     1
 10
261.5
 20
130.5
 11
261.5
 21
124.5
 72
     1
 10
261.5
 20
124.5
 11
0.0
 21
124.5
 72
     1
 10
0.0
 20
124.5
 11
0.0
 21
130.5
 97
        0
 75
     0
 76
     1
 52
45.00000747155863
 41
10.66666666666667
 77
     0
 78
     1
 53
90.00000747155863
 43
0.0
 44
0.0
 45
-33.86666666666638
 46
-0.0000044163250372
 79
     0
 98
        1
 10
0.0
 20
130.5
1001
TSA_
1071
        1
1071
       -1
1071
        9
1071
      113
1071
        0
1004

1040
0.0
1071
       29
  0
INSERT
  5
2FC
330
2C2
100
AcDbEntity
  8
A--L1---
100
AcDbBlockReference
  2
B2DUM$2
 10
0.0
 20
130.5
 30
0.0
  0
LWPOLYLINE
  5
2FD
330
2C2
100
AcDbEntity
  8
A--L1---
  6
Continuous
 62
     1
 48
400.0
100
AcDbPolyline
 90
        4
 70
     0
 43
0.0
 10
0.0
 20
130.5
 10
261.5
 20
130.5
 10
261.5
 20
124.5
 10
0.0
 20
124.5
1001
TSA_
1071
        1
1071
       -1
1071
        8
1071
      125
1071
        0
1004

1040
0.0
1071
       10
  0
LWPOLYLINE
  5
2FE
330
2C2
100
AcDbEntity
  8
A--L1---
  6
DOT2
 62
     1
 48
400.0
100
AcDbPolyline
 90
        4
 70
     1
 43
0.0
 10
270.5
 20
395.0
 10
270.5
 20
133.5
 10
264.5
 20
133.5
 10
264.5
 20
395.0
1001
TSA_
1071
        1
1071
       -1
1071
        9
1071
      113
1071
        0
1004

1040
0.0
1071
       29
  0
HATCH
  5
2FF
330
2C2
100
AcDbEntity
  8
A--L1---
 62
     5
100
AcDbHatch
 10
0.0
 20
0.0
 30
0.0
210
0.0
220
0.0
230
1.0
  2
ANSI31
 70
     0
 71
     1
 91
        1
 92
        1
 93
        4
 72
     1
 10
270.5
 20
395.0
 11
270.5
 21
133.5
 72
     1
 10
270.5
 20
133.5
 11
264.5
 21
133.5
 72
     1
 10
264.5
 20
133.5
 11
264.5
 21
395.0
 72
     1
 10
264.5
 20
395.0
 11
270.5
 21
395.0
 97
        0
 75
     0
 76
     1
 52
45.00000747155863
 41
10.66666666666667
 77
     0
 78
     1
 53
90.00000747155863
 43
0.0
 44
0.0
 45
-33.86666666666638
 46
-0.0000044163250372
 79
     0
 98
        1
 10
270.5
 20
395.0
1001
TSA_
1071
        1
1071
       -1
1071
        9
1071
      113
1071
        0
1004

1040
0.0
1071
       29
  0
INSERT
  5
300
330
2C2
100
AcDbEntity
  8
A--L1---
100
AcDbBlockReference
  2
B2DUM$2
 10
270.5
 20
395.0
 30
0.0
  0
LWPOLYLINE
  5
301
330
2C2
100
AcDbEntity
  8
A--L1---
  6
Continuous
 62
     1
 48
400.0
100
AcDbPolyline
 90
        4
 70
     0
 43
0.0
 10
270.5
 20
395.0
 10
270.5
 20
133.5
 10
264.5
 20
133.5
 10
264.5
 20
395.0
1001
TSA_
1071
        1
1071
       -1
1071
        8
1071
      125
1071
        0
1004

1040
0.0
1071
       10
  0
ENDBLK
  5
303
330
2C2
100
AcDbEntity
  8
0
100
AcDbBlockEnd
  0
BLOCK
  5
2C5
330
2C3
100
AcDbEntity
  8
0
100
AcDbBlockBegin
  2
BSCHROEF$2
 70
     0
 10
0.0
 20
0.0
 30
0.0
  3
BSCHROEF$2
  1

  0
LWPOLYLINE
  5
2C4
330
2C3
100
AcDbEntity
  8
A--L1---
  6
Continuous
 62
     5
 48
400.0
100
AcDbPolyline
 90
       12
 70
     0
 43
0.0
 10
4.0
 20
2.0
 10
8.0
 20
-2.0
 10
12.0
 20
2.0
 10
16.0
 20
-2.0
 10
20.0
 20
2.0
 10
24.0
 20
-2.0
 10
28.0
 20
2.0
 10
30.0
 20
0.0
 10
0.0
 20
0.0
 10
-2.0
 20
2.5
 10
-2.0
 20
-2.5
 10
0.0
 20
0.0
1001
TSA_
1071
        1
1071
       -1
1071
        8
1071
      255
1071
        0
1004

1040
0.0
1071
        5
  0
ENDBLK
  5
2C6
330
2C3
100
AcDbEntity
  8
0
100
AcDbBlockEnd
  0
BLOCK
  5
2D6
330
2CE
100
AcDbEntity
  8
0
100
AcDbBlockBegin
  2
BBOLBENAM$2
 70
     0
 10
0.0
 20
0.0
 30
0.0
  3
BBOLBENAM$2
  1

  0
LWPOLYLINE
  5
2CF
330
2CE
100
AcDbEntity
  8
A--L1---
  6
DASHDOT2
 62
     1
 48
400.0
100
AcDbPolyline
 90
        2
 70
     1
 43
0.0
 10
1.999999999999969
 20
-0.0000003500502928
 42
1.0
 10
-1.999999999999969
 20
0.0000003500502928
 42
1.0
1001
TSA_
1071
        1
1071
       -1
1071
        9
1071
      125
1071
        0
1004

1040
0.0
1071
       34
  0
HATCH
  5
2D0
330
2CE
100
AcDbEntity
  8
A--L1---
 62
     1
100
AcDbHatch
 10
0.0
 20
0.0
 30
0.0
210
0.0
220
0.0
230
1.0
  2
SOLID
 70
     1
 71
     1
 91
        1
 92
        1
 93
        2
 72
     2
 10
0.0
 20
0.0
 40
2.0
 50
359.9999899717978
 51
539.9999899717978
 73
     1
 72
     2
 10
0.0
 20
0.0
 40
2.0
 50
179.9999899717978
 51
359.9999899717978
 73
     1
 97
        0
 75
     0
 76
     1
 98
        1
 10
1.999999999999969
 20
-0.0000003500502928
1001
TSA_
1071
        1
1071
       -1
1071
        9
1071
      125
1071
        0
1004

1040
0.0
1071
       34
  0
INSERT
  5
2D4
330
2CE
100
AcDbEntity
  8
A--L1---
100
AcDbBlockReference
  2
B2DUM$2
 10
1.999999999999969
 20
-0.0000003500502928
 30
0.0
  0
LWPOLYLINE
  5
2D5
330
2CE
100
AcDbEntity
  8
A--L1---
  6
Continuous
 62
     2
 48
400.0
100
AcDbPolyline
 90
        2
 70
     1
 43
0.0
 10
1.999999999999969
 20
-0.0000003500502928
 42
1.0
 10
-1.999999999999969
 20
0.0000003500502928
 42
1.0
1001
TSA_
1071
        1
1071
       -1
1071
        8
1071
      125
1071
        0
1004

1040
0.0
1071
        7
  0
ENDBLK
  5
2D7
330
2CE
100
AcDbEntity
  8
0
100
AcDbBlockEnd
  0
BLOCK
  5
2D2
330
2D1
100
AcDbEntity
  8
0
100
AcDbBlockBegin
  2
B2DUM$2
 70
     0
 10
0.0
 20
0.0
 30
0.0
  3
B2DUM$2
  1

  0
ENDBLK
  5
2D3
330
2D1
100
AcDbEntity
  8
0
100
AcDbBlockEnd
  0
BLOCK
  5
355
330
30C
100
AcDbEntity
  8
0
100
AcDbBlockBegin
  2
DZSD208$2
 70
     0
 10
0.0
 20
0.0
 30
0.0
  3
DZSD208$2
  1

  0
INSERT
  5
34F
330
30C
100
AcDbEntity
  8
A--L1---
100
AcDbBlockReference
  2
DDET1-208$2
 10
335.0
 20
607.5
 30
0.0
  0
LWPOLYLINE
  5
350
330
30C
100
AcDbEntity
  8
A--L107-
  6
Continuous
 62
     1
 48
400.0
100
AcDbPolyline
 90
        2
 70
     0
 43
0.0
 10
1000.0
 20
295.0
 10
100.0
 20
295.0
1001
TSA_
1071
        1
1071
        2
1071
        8
1071
      255
1071
        0
1004

1040
0.0
1071
        1
  0
LWPOLYLINE
  5
351
330
30C
100
AcDbEntity
  8
A--L107-
  6
Continuous
 62
     1
 48
400.0
100
AcDbPolyline
 90
        2
 70
     0
 43
0.0
 10
1000.0
 20
172.5
 10
100.0
 20
172.5
1001
TSA_
1071
        1
1071
        3
1071
        8
1071
      255
1071
        0
1004

1040
0.0
1071
        1
  0
TEXT
  5
352
330
30C
100
AcDbEntity
  8
A--T1---
 62
     3
100
AcDbText
 10
120.0
 20
215.0
 30
0.0
 40
14.0
  1
Detail: 208
  7
TSA-7
100
AcDbText
1001
TSA_
1071
        1
1071
        4
1071
        6
1071
      127
1071
        0
1004

1040
0.0
1071
        7
  0
LWPOLYLINE
  5
353
330
30C
100
AcDbEntity
  8
A--L98--
  6
Continuous
 62
     1
 48
400.0
100
AcDbPolyline
 90
        4
 70
     1
 43
0.0
 10
0.0
 20
0.0
 10
0.0
 20
1485.0
 10
1050.0
 20
1485.0
 10
1050.0
 20
0.0
1001
TSA_
1071
        1
1071
        5
1071
        8
1071
      255
1071
        0
1004

1040
0.0
1071
        1
  0
LWPOLYLINE
  5
354
330
30C
100
AcDbEntity
  8
A--L98--
  6
Continuous
 62
     1
 48
400.0
100
AcDbPolyline
 90
        4
 70
     1
 43
0.0
 10
100.0
 20
172.5
 10
100.0
 20
1435.0
 10
1000.0
 20
1435.0
 10
1000.0
 20
172.5
1001
TSA_
1071
        1
1071
        6
1071
        8
1071
      255
1071
        0
1004

1040
0.0
1071
        1
  0
ENDBLK
  5
356
330
30C
100
AcDbEntity
  8
0
100
AcDbBlockEnd
  0
BLOCK
  5
34D
330
30D
100
AcDbEntity
  8
0
100
AcDbBlockBegin
  2
DDET1-208$2
 70
     0
 10
0.0
 20
0.0
 30
0.0
  3
DDET1-208$2
  1

  0
INSERT
  5
312
330
30D
100
AcDbEntity
  8
A--L1---
100
AcDbBlockReference
  2
DSCHROEF$2
 10
226.5
 20
124.5
 30
0.0
 50
89.99999999742762
1001
TSA_
1071
        1
1071
       -1
1071
        2
1071
      255
1071
        0
1004

1040
0.0
  0
TEXT
  5
313
330
30D
100
AcDbEntity
  8
A--T108-
 62
     1
100
AcDbText
 10
35.0
 20
78.5
 30
0.0
 40
3.6
  1
ROCKPANEL RINGNAGEL
  7
TSA-0_18
100
AcDbText
1001
TSA_
1071
        1
1071
       -1
1071
        6
1071
       97
1071
        0
1004

1040
0.0
1071
       72
  0
INSERT
  5
314
330
30D
100
AcDbEntity
  8
A--L1---
100
AcDbBlockReference
  2
DSCHROEF$2
 10
270.5
 20
150.5
 30
0.0
 50
180.0000000051448
1001
TSA_
1071
        1
1071
       -1
1071
        2
1071
      255
1071
        0
1004

1040
0.0
  0
TEXT
  5
315
330
30D
100
AcDbEntity
  8
A--T108-
 62
     1
100
AcDbText
 10
300.0
 20
195.0
 30
0.0
 40
3.6
  1
REGELWERK 34X70MM
  7
TSA-0_18
100
AcDbText
1001
TSA_
1071
        1
1071
       -1
1071
        6
1071
       97
1071
        0
1004

1040
0.0
1071
       72
  0
TEXT
  5
316
330
30D
100
AcDbEntity
  8
A--T108-
 62
     1
100
AcDbText
 10
300.0
 20
180.0
 30
0.0
 40
3.6
  1
VOEGBAND
  7
TSA-0_18
100
AcDbText
1001
TSA_
1071
        1
1071
       -1
1071
        6
1071
       97
1071
        0
1004

1040
0.0
1071
       72
  0
TEXT
  5
317
330
30D
100
AcDbEntity
  8
A--T108-
 62
     1
100
AcDbText
 10
300.0
 20
165.0
 30
0.0
 40
3.6
  1
HOEKPROFIEL ROCKPANEL TYPE D
  7
TSA-0_18
100
AcDbText
1001
TSA_
1071
        1
1071
       -1
1071
        6
1071
       97
1071
        0
1004

1040
0.0
1071
       72
  0
TEXT
  5
318
330
30D
100
AcDbEntity
  8
A--T108-
 62
     1
100
AcDbText
 10
300.0
 20
150.0
 30
0.0
 40
3.6
  1
ROCKPANEL 6 OF 8MM
  7
TSA-0_18
100
AcDbText
1001
TSA_
1071
        1
1071
       -1
1071
        6
1071
       97
1071
        0
1004

1040
0.0
1071
       72
  0
INSERT
  5
323
330
30D
100
AcDbEntity
  8
A--L1---
100
AcDbBlockReference
  2
DBOLBENAM$2
 10
263.0
 20
205.0
 30
0.0
1001
TSA_
1071
        1
1071
       -1
1071
        2
1071
      255
1071
        0
1004

1040
0.0
  0
INSERT
  5
324
330
30D
100
AcDbEntity
  8
A--L1---
100
AcDbBlockReference
  2
DBOLBENAM$2
 10
267.75
 20
205.0
 30
0.0
1001
TSA_
1071
        1
1071
       -1
1071
        2
1071
      255
1071
        0
1004

1040
0.0
  0
LWPOLYLINE
  5
325
330
30D
100
AcDbEntity
  8
A--L1---
  6
Continuous
 62
     1
 48
400.0
100
AcDbPolyline
 90
        4
 70
     1
 43
0.0
 10
191.5
 20
133.5
 10
191.5
 20
167.5
 10
261.5
 20
167.5
 10
261.5
 20
133.5
1001
TSA_
1071
        1
1071
       -1
1071
        9
1071
      121
1071
        0
1004

1040
0.0
1071
       49
  0
HATCH
  5
326
330
30D
100
AcDbEntity
  8
A--L1---
 62
     5
100
AcDbHatch
 10
0.0
 20
0.0
 30
0.0
210
0.0
220
0.0
230
1.0
  2
ANSI31
 70
     0
 71
     1
 91
        1
 92
        1
 93
        4
 72
     1
 10
191.5
 20
133.5
 11
191.5
 21
167.5
 72
     1
 10
191.5
 20
167.5
 11
261.5
 21
167.5
 72
     1
 10
261.5
 20
167.5
 11
261.5
 21
133.5
 72
     1
 10
261.5
 20
133.5
 11
191.5
 21
133.5
 97
        0
 75
     0
 76
     1
 52
90.00001494311726
 41
3.0
 77
     0
 78
     1
 53
135.0000149431173
 43
0.0
 44
0.0
 45
-6.735190334219109
 46
-6.735193847384162
 79
     0
 98
        1
 10
191.5
 20
133.5
1001
TSA_
1071
        1
1071
       -1
1071
        9
1071
      121
1071
        0
1004

1040
0.0
1071
       49
  0
INSERT
  5
327
330
30D
100
AcDbEntity
  8
A--L1---
100
AcDbBlockReference
  2
D2DUM$2
 10
191.5
 20
133.5
 30
0.0
  0
LWPOLYLINE
  5
328
330
30D
100
AcDbEntity
  8
A--L1---
  6
Continuous
 62
     2
 48
400.0
100
AcDbPolyline
 90
        4
 70
     1
 43
0.0
 10
191.5
 20
133.5
 10
191.5
 20
167.5
 10
261.5
 20
167.5
 10
261.5
 20
133.5
1001
TSA_
1071
        1
1071
       -1
1071
        8
1071
       97
1071
        0
1004

1040
0.0
1071
        2
  0
LWPOLYLINE
  5
329
330
30D
100
AcDbEntity
  8
A--L1---
  6
Continuous
 62
     5
 48
400.0
100
AcDbPolyline
 90
        3
 70
     0
 43
0.0
 10
226.5
 20
124.5
 10
226.5
 20
73.5
 10
35.0
 20
73.5
1001
TSA_
1071
        1
1071
       -1
1071
        8
1071
      255
1071
        0
1004

1040
0.0
1071
        5
  0
LWPOLYLINE
  5
32A
330
30D
100
AcDbEntity
  8
A--L1---
  6
DASHDOT2
 62
     1
 48
400.0
100
AcDbPolyline
 90
        2
 70
     1
 43
0.0
 10
228.5
 20
124.4999996499497
 42
1.0
 10
224.5
 20
124.5000003500503
 42
1.0
1001
TSA_
1071
        1
1071
       -1
1071
        9
1071
      125
1071
        0
1004

1040
0.0
1071
       34
  0
HATCH
  5
32B
330
30D
100
AcDbEntity
  8
A--L1---
 62
     1
100
AcDbHatch
 10
0.0
 20
0.0
 30
0.0
210
0.0
220
0.0
230
1.0
  2
SOLID
 70
     1
 71
     1
 91
        1
 92
        1
 93
        2
 72
     2
 10
226.5
 20
124.5
 40
2.0
 50
359.9999899717978
 51
539.9999899717978
 73
     1
 72
     2
 10
226.5
 20
124.5
 40
2.0
 50
179.9999899717978
 51
359.9999899717978
 73
     1
 97
        0
 75
     0
 76
     1
 98
        1
 10
226.5
 20
124.5
1001
TSA_
1071
        1
1071
       -1
1071
        9
1071
      125
1071
        0
1004

1040
0.0
1071
       34
  0
INSERT
  5
32C
330
30D
100
AcDbEntity
  8
A--L1---
100
AcDbBlockReference
  2
D2DUM$2
 10
226.5
 20
124.5
 30
0.0
  0
LWPOLYLINE
  5
32D
330
30D
100
AcDbEntity
  8
A--L1---
  6
Continuous
 62
     2
 48
400.0
100
AcDbPolyline
 90
        2
 70
     1
 43
0.0
 10
228.5
 20
124.4999996499497
 42
1.0
 10
224.5
 20
124.5000003500503
 42
1.0
1001
TSA_
1071
        1
1071
       -1
1071
        8
1071
      125
1071
        0
1004

1040
0.0
1071
        7
  0
LWPOLYLINE
  5
32E
330
30D
100
AcDbEntity
  8
A--L1---
  6
Continuous
 62
     1
 48
400.0
100
AcDbPolyline
 90
        4
 70
     1
 43
0.0
 10
261.5
 20
167.5
 10
227.5
 20
167.5
 10
227.5
 20
237.5
 10
261.5
 20
237.5
1001
TSA_
1071
        1
1071
       -1
1071
        9
1071
      121
1071
        0
1004

1040
0.0
1071
       49
  0
HATCH
  5
32F
330
30D
100
AcDbEntity
  8
A--L1---
 62
     5
100
AcDbHatch
 10
0.0
 20
0.0
 30
0.0
210
0.0
220
0.0
230
1.0
  2
ANSI31
 70
     0
 71
     1
 91
        1
 92
        1
 93
        4
 72
     1
 10
261.5
 20
167.5
 11
227.5
 21
167.5
 72
     1
 10
227.5
 20
167.5
 11
227.5
 21
237.5
 72
     1
 10
227.5
 20
237.5
 11
261.5
 21
237.5
 72
     1
 10
261.5
 20
237.5
 11
261.5
 21
167.5
 97
        0
 75
     0
 76
     1
 52
90.00001494311726
 41
3.0
 77
     0
 78
     1
 53
135.0000149431173
 43
0.0
 44
0.0
 45
-6.735190334219109
 46
-6.735193847384162
 79
     0
 98
        1
 10
261.5
 20
167.5
1001
TSA_
1071
        1
1071
       -1
1071
        9
1071
      121
1071
        0
1004

1040
0.0
1071
       49
  0
INSERT
  5
330
330
30D
100
AcDbEntity
  8
A--L1---
100
AcDbBlockReference
  2
D2DUM$2
 10
261.5
 20
167.5
 30
0.0
  0
LWPOLYLINE
  5
331
330
30D
100
AcDbEntity
  8
A--L1---
  6
Continuous
 62
     2
 48
400.0
100
AcDbPolyline
 90
        4
 70
     1
 43
0.0
 10
261.5
 20
167.5
 10
227.5
 20
167.5
 10
227.5
 20
237.5
 10
261.5
 20
237.5
1001
TSA_
1071
        1
1071
       -1
1071
        8
1071
       97
1071
        0
1004

1040
0.0
1071
        2
  0
LWPOLYLINE
  5
332
330
30D
100
AcDbEntity
  8
A--L1---
  6
DASHED2
 62
     1
 48
400.0
100
AcDbPolyline
 90
        4
 70
     1
 43
0.0
 10
205.0
 20
133.5
 10
261.5
 20
133.5
 10
261.5
 20
130.5
 10
205.0
 20
130.5
1001
TSA_
1071
        1
1071
       -1
1071
        9
1071
       97
1071
        0
1004

1040
0.0
1071
       71
  0
HATCH
  5
333
330
30D
100
AcDbEntity
  8
A--L1---
 62
     5
100
AcDbHatch
 10
0.0
 20
0.0
 30
0.0
210
0.0
220
0.0
230
1.0
  2
ANSI31
 70
     0
 71
     1
 91
        1
 92
        1
 93
        4
 72
     1
 10
205.0
 20
133.5
 11
261.5
 21
133.5
 72
     1
 10
261.5
 20
133.5
 11
261.5
 21
130.5
 72
     1
 10
261.5
 20
130.5
 11
205.0
 21
130.5
 72
     1
 10
205.0
 20
130.5
 11
205.0
 21
133.5
 97
        0
 75
     0
 76
     1
 52
135.0000224146759
 41
1.0
 77
     0
 78
     1
 53
180.0000224146759
 43
0.0
 44
0.0
 45
0.0000012420914164
 46
-3.174999999999757
 79
     0
 98
        1
 10
205.0
 20
133.5
1001
TSA_
1071
        1
1071
       -1
1071
        9
1071
       97
1071
        0
1004

1040
0.0
1071
       71
  0
LWPOLYLINE
  5
334
330
30D
100
AcDbEntity
  8
A--L1---
  6
DASHED2
 62
     1
 48
400.0
100
AcDbPolyline
 90
        4
 70
     1
 43
0.0
 10
205.0
 20
133.5
 10
261.5
 20
133.5
 10
261.5
 20
130.5
 10
205.0
 20
130.5
1001
TSA_
1071
        1
1071
       -1
1071
        9
1071
       97
1071
        0
1004

1040
0.0
1071
       76
  0
HATCH
  5
335
330
30D
100
AcDbEntity
  8
A--L1---
 62
     5
100
AcDbHatch
 10
0.0
 20
0.0
 30
0.0
210
0.0
220
0.0
230
1.0
  2
ANSI31
 70
     0
 71
     1
 91
        1
 92
        1
 93
        4
 72
     1
 10
205.0
 20
133.5
 11
261.5
 21
133.5
 72
     1
 10
261.5
 20
133.5
 11
261.5
 21
130.5
 72
     1
 10
261.5
 20
130.5
 11
205.0
 21
130.5
 72
     1
 10
205.0
 20
130.5
 11
205.0
 21
133.5
 97
        0
 75
     0
 76
     1
 52
45.00000747155863
 41
1.0
 77
     0
 78
     1
 53
90.00000747155863
 43
0.0
 44
0.0
 45
-3.174999999999973
 46
-0.0000004140304721
 79
     0
 98
        1
 10
205.0
 20
133.5
1001
TSA_
1071
        1
1071
       -1
1071
        9
1071
       97
1071
        0
1004

1040
0.0
1071
       76
  0
INSERT
  5
336
330
30D
100
AcDbEntity
  8
A--L1---
100
AcDbBlockReference
  2
D2DUM$2
 10
205.0
 20
133.5
 30
0.0
  0
LWPOLYLINE
  5
337
330
30D
100
AcDbEntity
  8
A--L1---
  6
Continuous
 62
     1
 48
400.0
100
AcDbPolyline
 90
        4
 70
     1
 43
0.0
 10
205.0
 20
133.5
 10
261.5
 20
133.5
 10
261.5
 20
130.5
 10
205.0
 20
130.5
1001
TSA_
1071
        1
1071
       -1
1071
        8
1071
       97
1071
        0
1004

1040
0.0
1071
       10
  0
LWPOLYLINE
  5
338
330
30D
100
AcDbEntity
  8
A--L1---
  6
DASHED2
 62
     1
 48
400.0
100
AcDbPolyline
 90
        4
 70
     1
 43
0.0
 10
261.5
 20
130.5
 10
261.5
 20
218.5
 10
264.5
 20
218.5
 10
264.5
 20
130.5
1001
TSA_
1071
        1
1071
       -1
1071
        9
1071
       97
1071
        0
1004

1040
0.0
1071
       71
  0
HATCH
  5
339
330
30D
100
AcDbEntity
  8
A--L1---
 62
     5
100
AcDbHatch
 10
0.0
 20
0.0
 30
0.0
210
0.0
220
0.0
230
1.0
  2
ANSI31
 70
     0
 71
     1
 91
        1
 92
        1
 93
        4
 72
     1
 10
261.5
 20
130.5
 11
261.5
 21
218.5
 72
     1
 10
261.5
 20
218.5
 11
264.5
 21
218.5
 72
     1
 10
264.5
 20
218.5
 11
264.5
 21
130.5
 72
     1
 10
264.5
 20
130.5
 11
261.5
 21
130.5
 97
        0
 75
     0
 76
     1
 52
135.0000224146759
 41
1.0
 77
     0
 78
     1
 53
180.0000224146759
 43
0.0
 44
0.0
 45
0.0000012420914164
 46
-3.174999999999757
 79
     0
 98
        1
 10
261.5
 20
130.5
1001
TSA_
1071
        1
1071
       -1
1071
        9
1071
       97
1071
        0
1004

1040
0.0
1071
       71
  0
LWPOLYLINE
  5
33A
330
30D
100
AcDbEntity
  8
A--L1---
  6
DASHED2
 62
     1
 48
400.0
100
AcDbPolyline
 90
        4
 70
     1
 43
0.0
 10
261.5
 20
130.5
 10
261.5
 20
218.5
 10
264.5
 20
218.5
 10
264.5
 20
130.5
1001
TSA_
1071
        1
1071
       -1
1071
        9
1071
       97
1071
        0
1004

1040
0.0
1071
       76
  0
HATCH
  5
33B
330
30D
100
AcDbEntity
  8
A--L1---
 62
     5
100
AcDbHatch
 10
0.0
 20
0.0
 30
0.0
210
0.0
220
0.0
230
1.0
  2
ANSI31
 70
     0
 71
     1
 91
        1
 92
        1
 93
        4
 72
     1
 10
261.5
 20
130.5
 11
261.5
 21
218.5
 72
     1
 10
261.5
 20
218.5
 11
264.5
 21
218.5
 72
     1
 10
264.5
 20
218.5
 11
264.5
 21
130.5
 72
     1
 10
264.5
 20
130.5
 11
261.5
 21
130.5
 97
        0
 75
     0
 76
     1
 52
45.00000747155863
 41
1.0
 77
     0
 78
     1
 53
90.00000747155863
 43
0.0
 44
0.0
 45
-3.174999999999973
 46
-0.0000004140304721
 79
     0
 98
        1
 10
261.5
 20
130.5
1001
TSA_
1071
        1
1071
       -1
1071
        9
1071
       97
1071
        0
1004

1040
0.0
1071
       76
  0
INSERT
  5
33C
330
30D
100
AcDbEntity
  8
A--L1---
100
AcDbBlockReference
  2
D2DUM$2
 10
261.5
 20
130.5
 30
0.0
  0
LWPOLYLINE
  5
33D
330
30D
100
AcDbEntity
  8
A--L1---
  6
Continuous
 62
     1
 48
400.0
100
AcDbPolyline
 90
        4
 70
     1
 43
0.0
 10
261.5
 20
130.5
 10
261.5
 20
218.5
 10
264.5
 20
218.5
 10
264.5
 20
130.5
1001
TSA_
1071
        1
1071
       -1
1071
        8
1071
       97
1071
        0
1004

1040
0.0
1071
       10
  0
LWPOLYLINE
  5
33E
330
30D
100
AcDbEntity
  8
A--L1---
  6
Continuous
 62
     1
 48
400.0
100
AcDbPolyline
 90
       10
 70
     1
 43
0.0
 10
229.5
 20
130.5
 10
264.5
 20
130.5
 10
264.5
 20
165.5
 10
265.5
 20
165.5
 10
265.5
 20
130.5
 10
273.199951171875
 20
130.5
 10
273.199951171875
 20
121.7999877929688
 10
264.5
 20
121.7999877929688
 10
264.5
 20
129.5
 10
229.5
 20
129.5
1001
TSA_
1071
        1
1071
       -1
1071
        8
1071
      125
1071
        0
1004

1040
0.0
1071
       10
  0
LWPOLYLINE
  5
33F
330
30D
100
AcDbEntity
  8
A--L1---
  6
Continuous
 62
     1
 48
400.0
100
AcDbPolyline
 90
        4
 70
     1
 43
0.0
 10
265.5
 20
129.5
 10
272.199951171875
 20
129.5
 10
272.199951171875
 20
122.7999877929688
 10
265.5
 20
122.7999877929688
1001
TSA_
1071
        1
1071
       -1
1071
        8
1071
      125
1071
        0
1004

1040
0.0
1071
       10
  0
LWPOLYLINE
  5
340
330
30D
100
AcDbEntity
  8
A--L1---
  6
Continuous
 62
     5
 48
400.0
100
AcDbPolyline
 90
        3
 70
     0
 43
0.0
 10
244.5
 20
205.0
 10
295.0
 20
205.0
 10
295.0
 20
150.0
1001
TSA_
1071
        1
1071
       -1
1071
        8
1071
      255
1071
        0
1004

1040
0.0
1071
        5
  0
LWPOLYLINE
  5
341
330
30D
100
AcDbEntity
  8
A--L1---
  6
DASHDOT2
 62
     1
 48
400.0
100
AcDbPolyline
 90
        2
 70
     1
 43
0.0
 10
246.5
 20
204.9999996499497
 42
1.0
 10
242.5
 20
205.0000003500503
 42
1.0
1001
TSA_
1071
        1
1071
       -1
1071
        9
1071
      125
1071
        0
1004

1040
0.0
1071
       34
  0
HATCH
  5
342
330
30D
100
AcDbEntity
  8
A--L1---
 62
     1
100
AcDbHatch
 10
0.0
 20
0.0
 30
0.0
210
0.0
220
0.0
230
1.0
  2
SOLID
 70
     1
 71
     1
 91
        1
 92
        1
 93
        2
 72
     2
 10
244.5
 20
205.0
 40
2.0
 50
359.9999899717978
 51
539.9999899717978
 73
     1
 72
     2
 10
244.5
 20
205.0
 40
2.0
 50
179.9999899717978
 51
359.9999899717978
 73
     1
 97
        0
 75
     0
 76
     1
 98
        1
 10
244.5
 20
205.0
1001
TSA_
1071
        1
1071
       -1
1071
        9
1071
      125
1071
        0
1004

1040
0.0
1071
       34
  0
INSERT
  5
343
330
30D
100
AcDbEntity
  8
A--L1---
100
AcDbBlockReference
  2
D2DUM$2
 10
244.5
 20
205.0
 30
0.0
  0
LWPOLYLINE
  5
344
330
30D
100
AcDbEntity
  8
A--L1---
  6
Continuous
 62
     2
 48
400.0
100
AcDbPolyline
 90
        2
 70
     1
 43
0.0
 10
246.5
 20
204.9999996499497
 42
1.0
 10
242.5
 20
205.0000003500503
 42
1.0
1001
TSA_
1071
        1
1071
       -1
1071
        8
1071
      125
1071
        0
1004

1040
0.0
1071
        7
  0
LWPOLYLINE
  5
345
330
30D
100
AcDbEntity
  8
A--L1---
  6
DOT2
 62
     1
 48
400.0
100
AcDbPolyline
 90
        4
 70
     1
 43
0.0
 10
0.0
 20
130.5
 10
261.5
 20
130.5
 10
261.5
 20
124.5
 10
0.0
 20
124.5
1001
TSA_
1071
        1
1071
       -1
1071
        9
1071
      113
1071
        0
1004

1040
0.0
1071
       29
  0
HATCH
  5
346
330
30D
100
AcDbEntity
  8
A--L1---
 62
     5
100
AcDbHatch
 10
0.0
 20
0.0
 30
0.0
210
0.0
220
0.0
230
1.0
  2
ANSI31
 70
     0
 71
     1
 91
        1
 92
        1
 93
        4
 72
     1
 10
0.0
 20
130.5
 11
261.5
 21
130.5
 72
     1
 10
261.5
 20
130.5
 11
261.5
 21
124.5
 72
     1
 10
261.5
 20
124.5
 11
0.0
 21
124.5
 72
     1
 10
0.0
 20
124.5
 11
0.0
 21
130.5
 97
        0
 75
     0
 76
     1
 52
45.00000747155863
 41
3.2
 77
     0
 78
     1
 53
90.00000747155863
 43
0.0
 44
0.0
 45
-10.15999999999991
 46
-0.0000013248975099
 79
     0
 98
        1
 10
0.0
 20
130.5
1001
TSA_
1071
        1
1071
       -1
1071
        9
1071
      113
1071
        0
1004

1040
0.0
1071
       29
  0
INSERT
  5
347
330
30D
100
AcDbEntity
  8
A--L1---
100
AcDbBlockReference
  2
D2DUM$2
 10
0.0
 20
130.5
 30
0.0
  0
LWPOLYLINE
  5
348
330
30D
100
AcDbEntity
  8
A--L1---
  6
Continuous
 62
     1
 48
400.0
100
AcDbPolyline
 90
        4
 70
     0
 43
0.0
 10
0.0
 20
130.5
 10
261.5
 20
130.5
 10
261.5
 20
124.5
 10
0.0
 20
124.5
1001
TSA_
1071
        1
1071
       -1
1071
        8
1071
      125
1071
        0
1004

1040
0.0
1071
       10
  0
LWPOLYLINE
  5
349
330
30D
100
AcDbEntity
  8
A--L1---
  6
DOT2
 62
     1
 48
400.0
100
AcDbPolyline
 90
        4
 70
     1
 43
0.0
 10
270.5
 20
395.0
 10
270.5
 20
133.5
 10
264.5
 20
133.5
 10
264.5
 20
395.0
1001
TSA_
1071
        1
1071
       -1
1071
        9
1071
      113
1071
        0
1004

1040
0.0
1071
       29
  0
HATCH
  5
34A
330
30D
100
AcDbEntity
  8
A--L1---
 62
     5
100
AcDbHatch
 10
0.0
 20
0.0
 30
0.0
210
0.0
220
0.0
230
1.0
  2
ANSI31
 70
     0
 71
     1
 91
        1
 92
        1
 93
        4
 72
     1
 10
270.5
 20
395.0
 11
270.5
 21
133.5
 72
     1
 10
270.5
 20
133.5
 11
264.5
 21
133.5
 72
     1
 10
264.5
 20
133.5
 11
264.5
 21
395.0
 72
     1
 10
264.5
 20
395.0
 11
270.5
 21
395.0
 97
        0
 75
     0
 76
     1
 52
45.00000747155863
 41
3.2
 77
     0
 78
     1
 53
90.00000747155863
 43
0.0
 44
0.0
 45
-10.15999999999991
 46
-0.0000013248975099
 79
     0
 98
        1
 10
270.5
 20
395.0
1001
TSA_
1071
        1
1071
       -1
1071
        9
1071
      113
1071
        0
1004

1040
0.0
1071
       29
  0
INSERT
  5
34B
330
30D
100
AcDbEntity
  8
A--L1---
100
AcDbBlockReference
  2
D2DUM$2
 10
270.5
 20
395.0
 30
0.0
  0
LWPOLYLINE
  5
34C
330
30D
100
AcDbEntity
  8
A--L1---
  6
Continuous
 62
     1
 48
400.0
100
AcDbPolyline
 90
        4
 70
     0
 43
0.0
 10
270.5
 20
395.0
 10
270.5
 20
133.5
 10
264.5
 20
133.5
 10
264.5
 20
395.0
1001
TSA_
1071
        1
1071
       -1
1071
        8
1071
      125
1071
        0
1004

1040
0.0
1071
       10
  0
ENDBLK
  5
34E
330
30D
100
AcDbEntity
  8
0
100
AcDbBlockEnd
  0
BLOCK
  5
310
330
30E
100
AcDbEntity
  8
0
100
AcDbBlockBegin
  2
DSCHROEF$2
 70
     0
 10
0.0
 20
0.0
 30
0.0
  3
DSCHROEF$2
  1

  0
LWPOLYLINE
  5
30F
330
30E
100
AcDbEntity
  8
A--L1---
  6
Continuous
 62
     5
 48
400.0
100
AcDbPolyline
 90
       12
 70
     0
 43
0.0
 10
4.0
 20
2.0
 10
8.0
 20
-2.0
 10
12.0
 20
2.0
 10
16.0
 20
-2.0
 10
20.0
 20
2.0
 10
24.0
 20
-2.0
 10
28.0
 20
2.0
 10
30.0
 20
0.0
 10
0.0
 20
0.0
 10
-2.0
 20
2.5
 10
-2.0
 20
-2.5
 10
0.0
 20
0.0
1001
TSA_
1071
        1
1071
       -1
1071
        8
1071
      255
1071
        0
1004

1040
0.0
1071
        5
  0
ENDBLK
  5
311
330
30E
100
AcDbEntity
  8
0
100
AcDbBlockEnd
  0
BLOCK
  5
321
330
319
100
AcDbEntity
  8
0
100
AcDbBlockBegin
  2
DBOLBENAM$2
 70
     0
 10
0.0
 20
0.0
 30
0.0
  3
DBOLBENAM$2
  1

  0
LWPOLYLINE
  5
31A
330
319
100
AcDbEntity
  8
A--L1---
  6
DASHDOT2
 62
     1
 48
400.0
100
AcDbPolyline
 90
        2
 70
     1
 43
0.0
 10
1.999999999999969
 20
-0.0000003500502928
 42
1.0
 10
-1.999999999999969
 20
0.0000003500502928
 42
1.0
1001
TSA_
1071
        1
1071
       -1
1071
        9
1071
      125
1071
        0
1004

1040
0.0
1071
       34
  0
HATCH
  5
31B
330
319
100
AcDbEntity
  8
A--L1---
 62
     1
100
AcDbHatch
 10
0.0
 20
0.0
 30
0.0
210
0.0
220
0.0
230
1.0
  2
SOLID
 70
     1
 71
     1
 91
        1
 92
        1
 93
        2
 72
     2
 10
0.0
 20
0.0
 40
2.0
 50
359.9999899717978
 51
539.9999899717978
 73
     1
 72
     2
 10
0.0
 20
0.0
 40
2.0
 50
179.9999899717978
 51
359.9999899717978
 73
     1
 97
        0
 75
     0
 76
     1
 98
        1
 10
1.999999999999969
 20
-0.0000003500502928
1001
TSA_
1071
        1
1071
       -1
1071
        9
1071
      125
1071
        0
1004

1040
0.0
1071
       34
  0
INSERT
  5
31F
330
319
100
AcDbEntity
  8
A--L1---
100
AcDbBlockReference
  2
D2DUM$2
 10
1.999999999999969
 20
-0.0000003500502928
 30
0.0
  0
LWPOLYLINE
  5
320
330
319
100
AcDbEntity
  8
A--L1---
  6
Continuous
 62
     2
 48
400.0
100
AcDbPolyline
 90
        2
 70
     1
 43
0.0
 10
1.999999999999969
 20
-0.0000003500502928
 42
1.0
 10
-1.999999999999969
 20
0.0000003500502928
 42
1.0
1001
TSA_
1071
        1
1071
       -1
1071
        8
1071
      125
1071
        0
1004

1040
0.0
1071
        7
  0
ENDBLK
  5
322
330
319
100
AcDbEntity
  8
0
100
AcDbBlockEnd
  0
BLOCK
  5
31D
330
31C
100
AcDbEntity
  8
0
100
AcDbBlockBegin
  2
D2DUM$2
 70
     0
 10
0.0
 20
0.0
 30
0.0
  3
D2DUM$2
  1

  0
ENDBLK
  5
31E
330
31C
100
AcDbEntity
  8
0
100
AcDbBlockEnd
  0
BLOCK
  5
1C
330
1B
100
AcDbEntity
  8
0
100
AcDbBlockBegin
  2
*Paper_Space73
 70
     0
 10
0.0
 20
0.0
 30
0.0
  3
*Paper_Space73
  1

  0
ENDBLK
  5
1D
330
1B
100
AcDbEntity
  8
0
100
AcDbBlockEnd
  0
ENDSEC
  0
SECTION
  2
ENTITIES
  0
INSERT
  5
3F8
330
1F
100
AcDbEntity
  8
A--L1---
100
AcDbBlockReference
  2
MSCHROEF$2
 10
623.9133360346677
 20
732.0
 30
0.0
 50
89.99999999742762
1001
TSA_
1071
        1
1071
       -1
1071
        2
1071
      255
1071
        0
1004

1040
0.0
  0
INSERT
  5
3F9
330
1F
100
AcDbEntity
  8
A--L1---
100
AcDbBlockReference
  2
MSCHROEF$2
 10
652.9063369375345
 20
789.175283351559
 30
0.0
 50
180.0000000051447
1001
TSA_
1071
        1
1071
       -1
1071
        2
1071
      255
1071
        0
1004

1040
0.0
  0
INSERT
  5
3FA
330
1F
100
AcDbEntity
  8
A--L1---
100
AcDbBlockReference
  2
MBOLBENAM$2
 10
645.4063369375345
 20
812.5
 30
0.0
1001
TSA_
1071
        1
1071
       -1
1071
        2
1071
      255
1071
        0
1004

1040
0.0
  0
INSERT
  5
3FB
330
1F
100
AcDbEntity
  8
A--L1---
100
AcDbBlockReference
  2
MBOLBENAM$2
 10
650.1563369375345
 20
812.5
 30
0.0
1001
TSA_
1071
        1
1071
       -1
1071
        2
1071
      255
1071
        0
1004

1040
0.0
  0
INSERT
  5
3FC
330
1F
100
AcDbEntity
  8
A--L1---
100
AcDbBlockReference
  2
M2DUM$2
 10
573.9063369375345
 20
741.0
 30
0.0
  0
LWPOLYLINE
  5
3FD
330
1F
100
AcDbEntity
  8
RP_wooden substructure
 48
400.0
100
AcDbPolyline
 90
        4
 70
     1
 43
0.0
 10
573.9063369375345
 20
741.0
 10
573.9063369375345
 20
775.0
 10
643.9063369375345
 20
775.0
 10
643.9063369375345
 20
741.0
1001
TSA_
1071
        1
1071
       -1
1071
        8
1071
        3
1071
        0
1004

1040
0.0
1071
        1
  0
LWPOLYLINE
  5
3FE
330
1F
100
AcDbEntity
  8
RP_Beschriftung
 48
400.0
100
AcDbPolyline
 90
        3
 70
     0
 43
0.0
 10
623.9133360346677
 20
732.0
 10
623.9133360346677
 20
681.0
 10
680.4063369375345
 20
681.0
1001
TSA_
1071
        1
1071
       -1
1071
        8
1071
      255
1071
        0
1004

1040
0.0
1071
        5
  0
INSERT
  5
3FF
330
1F
100
AcDbEntity
  8
A--L1---
100
AcDbBlockReference
  2
M2DUM$2
 10
608.9063369375345
 20
732.0
 30
0.0
  0
LWPOLYLINE
  5
400
330
1F
100
AcDbEntity
  8
A--L1---
  6
DASHDOT2
 62
     1
 48
400.0
100
AcDbPolyline
 90
        2
 70
     1
 43
0.0
 10
625.9133360346677
 20
731.9999996499497
 42
1.0
 10
621.9133360346677
 20
732.0000003500503
 42
1.0
1001
TSA_
1071
        1
1071
       -1
1071
        9
1071
        3
1071
        0
1004

1040
0.0
1071
       34
  0
HATCH
  5
401
330
1F
100
AcDbEntity
  8
A--L1---
 62
     1
100
AcDbHatch
 10
0.0
 20
0.0
 30
0.0
210
0.0
220
0.0
230
1.0
  2
SOLID
 70
     1
 71
     0
 91
        1
 92
        1
 93
        2
 72
     2
 10
623.9133360346677
 20
732.0
 40
2.0
 50
359.9999899717978
 51
539.9999899717978
 73
     1
 72
     2
 10
623.9133360346677
 20
732.0
 40
2.0
 50
179.9999899717978
 51
359.9999899717978
 73
     1
 97
        0
 75
     0
 76
     1
 98
        1
 10
623.9133360346677
 20
732.0
1001
TSA_
1071
        1
1071
       -1
1071
        9
1071
        3
1071
        0
1004

1040
0.0
1071
       34
  0
LWPOLYLINE
  5
402
330
1F
100
AcDbEntity
  8
A--L1---
  6
Continuous
 62
     2
 48
400.0
100
AcDbPolyline
 90
        2
 70
     1
 43
0.0
 10
625.9133360346677
 20
731.9999996499497
 42
1.0
 10
621.9133360346677
 20
732.0000003500503
 42
1.0
1001
TSA_
1071
        1
1071
       -1
1071
        8
1071
        3
1071
        0
1004

1040
0.0
1071
        7
  0
INSERT
  5
403
330
1F
100
AcDbEntity
  8
A--L1---
100
AcDbBlockReference
  2
M2DUM$2
 10
643.9063369375345
 20
775.0
 30
0.0
  0
LWPOLYLINE
  5
404
330
1F
100
AcDbEntity
  8
RP_wooden substructure
 48
400.0
100
AcDbPolyline
 90
        4
 70
     1
 43
0.0
 10
643.9063369375345
 20
775.0
 10
609.9063369375345
 20
775.0
 10
609.9063369375345
 20
845.0
 10
643.9063369375345
 20
845.0
1001
TSA_
1071
        1
1071
       -1
1071
        8
1071
        3
1071
        0
1004

1040
0.0
1071
        1
  0
INSERT
  5
405
330
1F
100
AcDbEntity
  8
A--L1---
100
AcDbBlockReference
  2
M2DUM$2
 10
587.4063369375345
 20
741.0
 30
0.0
  0
INSERT
  5
406
330
1F
100
AcDbEntity
  8
A--L1---
100
AcDbBlockReference
  2
M2DUM$2
 10
643.9063369375345
 20
738.0
 30
0.0
  0
LWPOLYLINE
  5
407
330
1F
100
AcDbEntity
  8
RP-Profile D
 48
400.0
100
AcDbPolyline
 90
       10
 70
     1
 43
0.0
 10
610.9063369375345
 20
739.0
 10
645.9063369375345
 20
739.0
 10
645.9063369375345
 20
774.0
 10
646.9063369375345
 20
774.0
 10
646.9063369375345
 20
739.0
 10
654.6062881094095
 20
739.0
 10
654.6062881094095
 20
730.2999877929688
 10
645.9063369375345
 20
730.2999877929688
 10
645.9063369375345
 20
738.0
 10
610.9063369375345
 20
738.0
1001
TSA_
1071
        1
1071
       -1
1071
        8
1071
        3
1071
        0
1004

1040
0.0
1071
       10
  0
LWPOLYLINE
  5
408
330
1F
100
AcDbEntity
  8
RP-Profile D
 48
400.0
100
AcDbPolyline
 90
        4
 70
     1
 43
0.0
 10
646.9063369375345
 20
738.0
 10
653.6062881094095
 20
738.0
 10
653.6062881094095
 20
731.2999877929688
 10
646.9063369375345
 20
731.2999877929688
1001
TSA_
1071
        1
1071
       -1
1071
        8
1071
        3
1071
        0
1004

1040
0.0
1071
       10
  0
LWPOLYLINE
  5
409
330
1F
100
AcDbEntity
  8
RP_Beschriftung
 48
400.0
100
AcDbPolyline
 90
        3
 70
     0
 43
0.0
 10
626.9063369375345
 20
812.5
 10
677.4063369375345
 20
812.5
 10
677.4063369375345
 20
772.5
1001
TSA_
1071
        1
1071
       -1
1071
        8
1071
      255
1071
        0
1004

1040
0.0
1071
        5
  0
INSERT
  5
40A
330
1F
100
AcDbEntity
  8
A--L1---
100
AcDbBlockReference
  2
M2DUM$2
 10
626.9063369375345
 20
812.5
 30
0.0
  0
LWPOLYLINE
  5
40B
330
1F
100
AcDbEntity
  8
A--L1---
  6
DASHDOT2
 62
     1
 48
400.0
100
AcDbPolyline
 90
        2
 70
     1
 43
0.0
 10
628.9063369375345
 20
812.4999996499497
 42
1.0
 10
624.9063369375345
 20
812.5000003500503
 42
1.0
1001
TSA_
1071
        1
1071
       -1
1071
        9
1071
        3
1071
        0
1004

1040
0.0
1071
       34
  0
HATCH
  5
40C
330
1F
100
AcDbEntity
  8
A--L1---
 62
     1
100
AcDbHatch
 10
0.0
 20
0.0
 30
0.0
210
0.0
220
0.0
230
1.0
  2
SOLID
 70
     1
 71
     1
 91
        1
 92
        1
 93
        2
 72
     2
 10
626.9063369375345
 20
812.5
 40
2.0
 50
359.9999899717978
 51
539.9999899717978
 73
     1
 72
     2
 10
626.9063369375345
 20
812.5
 40
2.0
 50
179.9999899717978
 51
359.9999899717978
 73
     1
 97
        0
 75
     0
 76
     1
 98
        1
 10
626.9063369375345
 20
812.5
1001
TSA_
1071
        1
1071
       -1
1071
        9
1071
        3
1071
        0
1004

1040
0.0
1071
       34
  0
LWPOLYLINE
  5
40D
330
1F
100
AcDbEntity
  8
A--L1---
  6
Continuous
 62
     2
 48
400.0
100
AcDbPolyline
 90
        2
 70
     1
 43
0.0
 10
628.9063369375345
 20
812.4999996499497
 42
1.0
 10
624.9063369375345
 20
812.5000003500503
 42
1.0
1001
TSA_
1071
        1
1071
       -1
1071
        8
1071
        3
1071
        0
1004

1040
0.0
1071
        7
  0
INSERT
  5
40E
330
1F
100
AcDbEntity
  8
A--L1---
100
AcDbBlockReference
  2
M2DUM$2
 10
382.4063369375345
 20
738.0
 30
0.0
  0
LWPOLYLINE
  5
40F
330
1F
100
AcDbEntity
  8
RP_Platte
 48
400.0
100
AcDbPolyline
 90
        4
 70
     1
 43
0.0
 10
412.4063369375345
 20
738.0
 10
643.9063369375345
 20
738.0
 10
643.9063369375345
 20
732.0
 10
412.4063369375345
 20
732.0
1001
TSA_
1071
        1
1071
       -1
1071
        8
1071
        3
1071
        0
1004

1040
0.0
1071
       10
  0
INSERT
  5
410
330
1F
100
AcDbEntity
  8
A--L1---
100
AcDbBlockReference
  2
M2DUM$2
 10
652.9063369375345
 20
1002.5
 30
0.0
  0
LWPOLYLINE
  5
411
330
1F
100
AcDbEntity
  8
RP_Platte
 48
400.0
100
AcDbPolyline
 90
        4
 70
     1
 43
0.0
 10
652.9063369375345
 20
1002.5
 10
652.9063369375345
 20
741.0
 10
646.9063369375345
 20
741.0
 10
646.9063369375345
 20
1002.5
1001
TSA_
1071
        1
1071
       -1
1071
        8
1071
        3
1071
        0
1004

1040
0.0
1071
       10
  0
LWPOLYLINE
  5
4A8
330
1F
100
AcDbEntity
  8
RP_Beschriftung
 48
400.0
100
AcDbPolyline
 90
        2
 70
     0
 43
0.0
 10
650.256312523472
 20
734.6499938964844
 10
676.4063369375345
 20
734.6499938964844
1001
TSA_
1071
        1
1071
       -1
1071
        8
1071
      255
1071
        0
1004

1040
0.0
1071
        5
  0
LWPOLYLINE
  5
4A9
330
1F
100
AcDbEntity
  8
A--L1---
  6
DASHDOT2
 62
     1
 48
400.0
100
AcDbPolyline
 90
        2
 70
     1
 43
0.0
 10
652.256312523472
 20
734.6499935464341
 42
1.0
 10
648.256312523472
 20
734.6499942465347
 42
1.0
1001
TSA_
1071
        1
1071
       -1
1071
        9
1071
        3
1071
        0
1004

1040
0.0
1071
       34
  0
HATCH
  5
4AA
330
1F
100
AcDbEntity
  8
A--L1---
 62
     1
100
AcDbHatch
 10
0.0
 20
0.0
 30
0.0
210
0.0
220
0.0
230
1.0
  2
SOLID
 70
     1
 71
     0
 91
        1
 92
        1
 93
        2
 72
     2
 10
650.256312523472
 20
734.6499938964844
 40
2.0
 50
359.9999899717978
 51
539.9999899717978
 73
     1
 72
     2
 10
650.256312523472
 20
734.6499938964844
 40
2.0
 50
179.9999899717978
 51
359.9999899717978
 73
     1
 97
        0
 75
     0
 76
     1
 98
        1
 10
650.256312523472
 20
734.6499938964844
1001
TSA_
1071
        1
1071
       -1
1071
        9
1071
        3
1071
        0
1004

1040
0.0
1071
       34
  0
LWPOLYLINE
  5
4AB
330
1F
100
AcDbEntity
  8
A--L1---
  6
Continuous
 62
     2
 48
400.0
100
AcDbPolyline
 90
        2
 70
     1
 43
0.0
 10
652.256312523472
 20
734.6499935464341
 42
1.0
 10
648.256312523472
 20
734.6499942465347
 42
1.0
1001
TSA_
1071
        1
1071
       -1
1071
        8
1071
        3
1071
        0
1004

1040
0.0
1071
        7
  0
HATCH
  5
511
102
{ACAD_XDICTIONARY
360
512
102
}
330
1F
100
AcDbEntity
  8
RP_Platte
100
AcDbHatch
 10
0.0
 20
0.0
 30
0.0
210
0.0
220
0.0
230
1.0
  2
SOLID
 70
     1
 71
     0
 91
        1
 92
        3
 72
     0
 73
     1
 93
        4
 10
643.9063369375345
 20
738.0
 10
412.4063369375345
 20
738.0
 10
412.4063369375345
 20
732.0
 10
643.9063369375345
 20
732.0
 97
        0
 75
     0
 76
     1
 98
        1
 10
383.0498389490827
 20
737.9228683200183
1001
ACAD
1010
0.0
1020
0.0
1030
0.0
1001
AcadAnnotative
1000
AnnotativeData
1002
{
1070
     1
1070
     0
1002
}
  0
HATCH
  5
515
102
{ACAD_XDICTIONARY
360
516
102
}
330
1F
100
AcDbEntity
  8
RP_Platte
100
AcDbHatch
 10
0.0
 20
0.0
 30
0.0
210
0.0
220
0.0
230
1.0
  2
SOLID
 70
     1
 71
     0
 91
        1
 92
        3
 72
     0
 73
     1
 93
        4
 10
652.9063369375345
 20
741.0
 10
652.9063369375345
 20
1002.5
 10
646.9063369375345
 20
1002.5
 10
646.9063369375345
 20
741.0
 97
        0
 75
     0
 76
     1
 98
        0
1001
ACAD
1010
0.0
1020
0.0
1030
0.0
1001
AcadAnnotative
1000
AnnotativeData
1002
{
1070
     1
1070
     0
1002
}
  0
HATCH
  5
519
102
{ACAD_XDICTIONARY
360
51E
102
}
330
1F
100
AcDbEntity
  8
RP_wooden substructure
100
AcDbHatch
 10
0.0
 20
0.0
 30
0.0
210
0.0
220
0.0
230
1.0
  2
ANSI31
 70
     0
 71
     0
 91
        1
 92
        7
 72
     0
 73
     1
 93
       41
 10
643.9063369375345
 20
775.0
 10
609.9063369375345
 20
775.0
 10
573.9063369375345
 20
775.0
 10
573.9063369375345
 20
741.0
 10
608.9063369379386
 20
741.0
 10
608.9063369379835
 20
742.0
 10
606.9063369380733
 20
744.0000000000898
 10
608.9063369381631
 20
746.0
 10
608.9063369383426
 20
750.0
 10
606.9063369384324
 20
752.0000000000898
 10
608.9063369385223
 20
754.0
 10
608.9063369387018
 20
758.0000000000001
 10
606.9063369387917
 20
760.0000000000898
 10
608.9063369388814
 20
762.0
 10
608.9063369387018
 20
758.0000000000001
 10
610.9063369386121
 20
755.9999999999102
 10
608.9063369385223
 20
754.0
 10
608.9063369383426
 20
750.0
 10
610.9063369382529
 20
747.9999999999102
 10
608.9063369381631
 20
746.0
 10
608.9063369379835
 20
742.0
 10
609.9063369378937
 20
741.0
 10
643.9063369375345
 20
741.0
 10
643.9063369375345
 20
757.9999999991919
 10
642.9063369375345
 20
757.9999999991021
 10
640.9063369377142
 20
755.9999999989225
 10
638.9063369375345
 20
757.9999999987429
 10
634.9063369375344
 20
757.9999999983837
 10
632.9063369377142
 20
755.9999999982042
 10
630.9063369375345
 20
757.9999999980246
 10
626.9063369375345
 20
757.9999999976653
 10
624.9063369377142
 20
755.9999999974858
 10
622.9063369375345
 20
757.9999999973062
 10
626.9063369375345
 20
757.9999999976653
 10
628.9063369373549
 20
759.999999997845
 10
630.9063369375345
 20
757.9999999980246
 10
634.9063369375344
 20
757.9999999983837
 10
636.9063369373549
 20
759.9999999985633
 10
638.9063369375345
 20
757.9999999987429
 10
642.9063369375345
 20
757.9999999991021
 10
643.9063369375345
 20
758.9999999992816
 97
        0
 75
     0
 76
     1
 52
90.0
 41
5.0
 77
     0
 78
     1
 53
135.0
 43
0.0
 44
0.0
 45
-11.22532015133644
 46
-11.22532015133644
 79
     0
 47
0.0
 98
        1
 10
617.0036515113044
 20
770.3974624753085
1001
ACAD
1010
0.0
1020
0.0
1030
0.0
1001
AcadAnnotative
1000
AnnotativeData
1002
{
1070
     1
1070
     0
1002
}
  0
HATCH
  5
51A
102
{ACAD_XDICTIONARY
360
51B
102
}
330
1F
100
AcDbEntity
  8
RP_wooden substructure
100
AcDbHatch
 10
0.0
 20
0.0
 30
0.0
210
0.0
220
0.0
230
1.0
  2
ANSI31
 70
     0
 71
     0
 91
        2
 92
        7
 72
     1
 73
     1
 93
        7
 10
609.9063369375345
 20
775.0
 42
0.0
 10
643.9063369375345
 20
775.0
 42
0.0
 10
643.9063369375345
 20
811.1771243444678
 42
-0.1826758588980485
 10
643.4063369375345
 20
812.5000003500503
 42
-0.182675768465141
 10
643.9063369375345
 20
813.8228756555322
 42
0.0
 10
643.9063369375345
 20
845.0
 42
0.0
 10
609.9063369375345
 20
845.0
 42
0.0
 97
        0
 92
       22
 72
     1
 73
     1
 93
        2
 10
624.9063369375345
 20
812.5000003500503
 42
-0.9999999999999999
 10
628.9063369375345
 20
812.4999996499497
 42
-0.9999999999999999
 97
        0
 75
     0
 76
     1
 52
90.0
 41
5.0
 77
     0
 78
     1
 53
135.0
 43
0.0
 44
0.0
 45
-11.22532015133644
 46
-11.22532015133644
 79
     0
 47
0.0
 98
        2
 10
615.5713598446376
 20
782.810656919753
 10
615.5713598446376
 20
782.810656919753
1001
ACAD
1010
0.0
1020
0.0
1030
0.0
1001
AcadAnnotative
1000
AnnotativeData
1002
{
1070
     1
1070
     0
1002
}
  0
HATCH
  5
558
102
{ACAD_XDICTIONARY
360
559
102
}
330
1F
100
AcDbEntity
  8
RP_EPDM
100
AcDbHatch
 10
0.0
 20
0.0
 30
0.0
210
0.0
220
0.0
230
1.0
  2
SOLID
 70
     1
 71
     0
 91
        1
 92
        3
 72
     0
 73
     1
 93
        4
 10
588.9063369375345
 20
741.0
 10
588.9063369375345
 20
738.0
 10
643.9063369375345
 20
738.0
 10
643.9063369375345
 20
741.0
 97
        0
 75
     0
 76
     1
 98
        0
1001
ACAD
1010
0.0
1020
0.0
1030
0.0
1001
AcadAnnotative
1000
AnnotativeData
1002
{
1070
     1
1070
     0
1002
}
  0
LWPOLYLINE
  5
55C
330
1F
100
AcDbEntity
  8
RP_EPDM
  6
Continuous
 48
400.0
100
AcDbPolyline
 90
        4
 70
     1
 43
0.0
 10
588.9063369375345
 20
738.0
 10
588.9063369375345
 20
741.0
 10
643.9063369375345
 20
741.0
 10
643.9063369375345
 20
738.0
1001
TSA_
1071
        1
1071
       -1
1071
        8
1071
       97
1071
        0
1004

1040
0.0
1071
       10
  0
HATCH
  5
592
102
{ACAD_XDICTIONARY
360
593
102
}
330
1F
100
AcDbEntity
  8
RP_EPDM
100
AcDbHatch
 10
0.0
 20
0.0
 30
0.0
210
0.0
220
0.0
230
1.0
  2
SOLID
 70
     1
 71
     0
 91
        1
 92
        3
 72
     0
 73
     1
 93
        4
 10
643.9063369375345
 20
741.0
 10
646.9063369375345
 20
741.0
 10
646.9063369375345
 20
830.0
 10
643.9063369375345
 20
830.0
 97
        0
 75
     0
 76
     1
 98
        0
1001
ACAD
1010
0.0
1020
0.0
1030
0.0
1001
AcadAnnotative
1000
AnnotativeData
1002
{
1070
     1
1070
     0
1002
}
  0
LWPOLYLINE
  5
596
330
1F
100
AcDbEntity
  8
RP_EPDM
  6
Continuous
 48
400.0
100
AcDbPolyline
 90
        4
 70
     1
 43
0.0
 10
646.9063369375345
 20
741.0
 10
643.9063369375345
 20
741.0
 10
643.9063369375345
 20
830.0
 10
646.9063369375345
 20
830.0
1001
TSA_
1071
        1
1071
       -1
1071
        8
1071
       97
1071
        0
1004

1040
0.0
1071
       10
  0
HATCH
  5
5C6
102
{ACAD_XDICTIONARY
360
5C7
102
}
330
1F
100
AcDbEntity
  8
RP-Profile D
100
AcDbHatch
 10
0.0
 20
0.0
 30
0.0
210
0.0
220
0.0
230
1.0
  2
SOLID
 70
     1
 71
     0
 91
        2
 92
        3
 72
     0
 73
     1
 93
       10
 10
645.9063369375345
 20
739.0
 10
610.9063369375345
 20
739.0
 10
610.9063369375345
 20
738.0
 10
645.9063369375345
 20
738.0
 10
645.9063369375345
 20
730.2999877929688
 10
654.6062881094095
 20
730.2999877929688
 10
654.6062881094095
 20
739.0
 10
646.9063369375345
 20
739.0
 10
646.9063369375345
 20
774.0
 10
645.9063369375345
 20
774.0
 97
        0
 92
       18
 72
     0
 73
     1
 93
        4
 10
646.9063369375345
 20
738.0
 10
653.6062881094095
 20
738.0
 10
653.6062881094095
 20
731.2999877929688
 10
646.9063369375345
 20
731.2999877929688
 97
        0
 75
     0
 76
     1
 98
        0
1001
ACAD
1010
0.0
1020
0.0
1030
0.0
1001
AcadAnnotative
1000
AnnotativeData
1002
{
1070
     1
1070
     0
1002
}
  0
MTEXT
  5
630
102
{ACAD_XDICTIONARY
360
631
102
}
330
1F
100
AcDbEntity
  8
RP_Beschriftung
100
AcDbMText
 10
682.6033112619253
 20
780.8890956039268
 30
0.0
 40
7.0
 41
387.1999999999999
 46
7.119
 71
     1
 72
     1
  1
{\fArial|b0|i0|c0|p0;PANNEAU ROCKPANEL ≥ 6mm}
 73
     1
 44
1.0
1001
AcadAnnotative
1000
AnnotativeData
1002
{
1070
     1
1070
     0
1002
}
1001
ACAD
1000
ACAD_MTEXT_DEFINED_HEIGHT_BEGIN
1070
    46
1040
7.119
1000
ACAD_MTEXT_DEFINED_HEIGHT_END
  0
MTEXT
  5
666
102
{ACAD_XDICTIONARY
360
667
102
}
330
1F
100
AcDbEntity
  8
RP_Beschriftung
100
AcDbMText
 10
682.6033112619253
 20
795.0566636315413
 30
0.0
 40
7.0
 41
387.1999999999999
 46
7.119
 71
     1
 72
     1
  1
{\fArial|b0|i0|c0|p0;BANDE D'ÉTANCHÉITÉ EPDM}
 73
     1
 44
1.0
1001
AcadAnnotative
1000
AnnotativeData
1002
{
1070
     1
1070
     0
1002
}
1001
ACAD
1000
ACAD_MTEXT_DEFINED_HEIGHT_BEGIN
1070
    46
1040
7.119
1000
ACAD_MTEXT_DEFINED_HEIGHT_END
  0
MTEXT
  5
69C
102
{ACAD_XDICTIONARY
360
69D
102
}
330
1F
100
AcDbEntity
  8
RP_Beschriftung
100
AcDbMText
 10
682.6033112619253
 20
810.2871956772588
 30
0.0
 40
7.0
 41
387.1999999999999
 46
7.119
 71
     1
 72
     1
  1
{\fArial|b0|i0|c0|p0;CHEVRONS 34 x 70mm}
 73
     1
 44
1.0
1001
AcadAnnotative
1000
AnnotativeData
1002
{
1070
     1
1070
     0
1002
}
1001
ACAD
1000
ACAD_MTEXT_DEFINED_HEIGHT_BEGIN
1070
    46
1040
7.119
1000
ACAD_MTEXT_DEFINED_HEIGHT_END
  0
MTEXT
  5
6D2
102
{ACAD_XDICTIONARY
360
6D3
102
}
330
1F
100
AcDbEntity
  8
RP_Beschriftung
100
AcDbMText
 10
681.6033112619253
 20
743.0390895004111
 30
0.0
 40
7.0
 41
387.1999999999999
 46
7.119
 71
     1
 72
     1
  1
{\fArial|b0|i0|c0|p0;PROFIL D ROCKPANEL }
 73
     1
 44
1.0
1001
AcadAnnotative
1000
AnnotativeData
1002
{
1070
     1
1070
     0
1002
}
1001
ACAD
1000
ACAD_MTEXT_DEFINED_HEIGHT_BEGIN
1070
    46
1040
7.119
1000
ACAD_MTEXT_DEFINED_HEIGHT_END
  0
MTEXT
  5
740
102
{ACAD_XDICTIONARY
360
741
102
}
330
1F
100
AcDbEntity
  8
RP_Beschriftung
100
AcDbMText
 10
685.6033112619253
 20
689.3890956039268
 30
0.0
 40
7.0
 41
387.1999999999999
 46
7.119
 71
     1
 72
     1
  1
{\fArial|b0|i0|c0|p0;FIXATION ROCKPANEL }
 73
     1
 44
1.0
1001
AcadAnnotative
1000
AnnotativeData
1002
{
1070
     1
1070
     0
1002
}
1001
ACAD
1000
ACAD_MTEXT_DEFINED_HEIGHT_BEGIN
1070
    46
1040
7.119
1000
ACAD_MTEXT_DEFINED_HEIGHT_END
  0
VIEWPORT
  5
74B
102
{ACAD_XDICTIONARY
360
74C
102
}
330
748
100
AcDbEntity
 67
     1
  8
0
100
AcDbViewport
 10
0.0
 20
0.0
 30
0.0
 40
483.8200000000001
 41
302.9400000000001
 68
     1
 69
     1
 12
337.9534537159595
 22
148.4999999466577
 13
0.0
 23
0.0
 14
10.0
 24
10.0
 15
10.0
 25
10.0
 16
0.0
 26
0.0
 36
1.0
 17
0.0
 27
0.0
 37
0.0
 42
50.0
 43
0.0
 44
0.0
 45
302.9400000000001
 50
0.0
 51
0.0
 72
  1000
 90
   819248
  1

281
     0
 71
     1
 74
     0
110
0.0
120
0.0
130
0.0
111
1.0
121
0.0
131
0.0
112
0.0
122
1.0
132
0.0
 79
     0
146
0.0
170
     0
 61
     5
348
363
292
     1
282
     1
141
0.0
142
0.0
 63
   256
361
750
  0
LWPOLYLINE
  5
751
330
748
100
AcDbEntity
 67
     1
  8
GIP-Planrahmen
100
AcDbPolyline
 90
        4
 70
     1
 43
0.0
 10
232.9534537159595
 20
-0.000000053342319
 10
442.9534537159595
 20
-0.0000000533422622
 10
442.9534537159595
 20
296.9999999466577
 10
232.9534537159595
 20
296.9999999466577
  0
VIEWPORT
  5
755
102
{ACAD_XDICTIONARY
360
756
102
}
330
748
100
AcDbEntity
 67
     1
  8
GIP-Ansichtsfenster
 62
   253
 48
100.0
100
AcDbViewport
 10
337.9534537159595
 20
163.9841608550751
 30
0.0
 40
177.7533559377462
 41
236.0316781831651
 68
     2
 69
     2
 12
581.516699273491
 22
802.7245203833863
 13
0.0
 23
0.0
 14
10.0
 24
10.0
 15
10.0
 25
10.0
 16
0.0
 26
0.0
 36
1.0
 17
7.851038869174772
 27
-20.45457997723008
 37
0.0
 42
50.0
 43
0.0
 44
0.0
 45
747.1063350118599
 50
0.0
 51
0.0
 72
  1000
 90
   819280
  1

281
     0
 71
     1
 74
     0
110
0.0
120
0.0
130
0.0
111
1.0
121
0.0
131
0.0
112
0.0
122
1.0
132
0.0
 79
     0
146
0.0
170
     0
 61
     5
348
363
292
     1
282
     1
141
0.0
142
0.0
 63
   256
361
75D
  0
LWPOLYLINE
  5
75E
330
748
100
AcDbEntity
 67
     1
  8
0
100
AcDbPolyline
 90
        4
 70
     1
 43
0.0
 10
249.0767757470865
 20
45.9683217634926
 10
426.8301316848326
 20
45.9683217634926
 10
426.8301316848326
 20
14.99999994665774
 10
249.0767757470865
 20
14.99999994665774
  0
LWPOLYLINE
  5
768
330
748
100
AcDbEntity
 67
     1
  8
0
  6
Continuous
370
     0
100
AcDbPolyline
 90
        4
 70
     1
 43
0.0
 10
249.0767757470865
 20
45.9683217634926
 10
426.8301316848326
 20
45.9683217634926
 10
426.8301316848326
 20
281.9999999466577
 10
249.0767757470865
 20
281.9999999466577
  0
MTEXT
  5
7DE
102
{ACAD_XDICTIONARY
360
7DF
102
}
330
748
100
AcDbEntity
 67
     1
  8
RP_Beschriftung
100
AcDbMText
 10
252.2039263470452
 20
40.2859858522473
 30
0.0
 40
3.0
 41
30.97602534837966
 46
0.0
 71
     1
 72
     1
  1
\fArial|b0|i0;Detail 1-208
 73
     1
 44
1.0
1001
AcadAnnotative
1000
AnnotativeData
1002
{
1070
     1
1070
     0
1002
}
  0
MTEXT
  5
7E2
102
{ACAD_XDICTIONARY
360
7E3
102
}
330
748
100
AcDbEntity
 67
     1
  8
RP_Beschriftung
100
AcDbMText
 10
252.2039263470452
 20
32.12871781993518
 30
0.0
 40
2.5
 41
65.29623841115625
 46
2.54
 71
     1
 72
     1
  1
{\fArial|b0|i0|c0|p0;Angle verticale externe avec profil}
 73
     1
 44
1.0
1001
AcadAnnotative
1000
AnnotativeData
1002
{
1070
     1
1070
     0
1002
}
1001
ACAD
1000
ACAD_MTEXT_DEFINED_HEIGHT_BEGIN
1070
    46
1040
2.54
1000
ACAD_MTEXT_DEFINED_HEIGHT_END
  0
IMAGE
  5
7E8
330
748
100
AcDbEntity
 67
     1
  8
0
160
                 8
310
0800000000000000
100
AcDbRasterImage
 90
        0
 10
329.8542131316455
 20
14.99999994665773
 30
0.0
 11
0.07269559111933067
 21
0.0
 31
0.0
 12
0.0
 22
0.07269559111933067
 32
0.0
 13
1334.0
 23
426.0
340
7E7
 70
     3
280
     0
281
    50
282
    50
283
     0
360
7E9
 71
     1
 91
        2
 14
-0.5
 24
-0.5
 14
1333.5
 24
425.5
290
     0
  0
ENDSEC
  0
SECTION
  2
OBJECTS
  0
DICTIONARY
  5
C
330
0
100
AcDbDictionary
281
     1
  3
ACAD_COLOR
350
445
  3
ACAD_DETAILVIEWSTYLE
350
3A7
  3
ACAD_GROUP
350
D
  3
ACAD_IMAGE_DICT
350
3C8
  3
ACAD_IMAGE_VARS
350
3D3
  3
ACAD_LAYOUT
350
1A
  3
ACAD_MATERIAL
350
399
  3
ACAD_MLEADERSTYLE
350
39F
  3
ACAD_MLINESTYLE
350
17
  3
ACAD_PLOTSETTINGS
350
19
  3
ACAD_PLOTSTYLENAME
350
E
  3
ACAD_SCALELIST
350
377
  3
ACAD_SECTIONVIEWSTYLE
350
3A8
  3
ACAD_TABLESTYLE
350
39D
  3
ACAD_VISUALSTYLE
350
35E
  3
ACDB_RECOMPOSE_DATA
350
7EC
  3
AcDbVariableDictionary
350
5B
  3
APPDATA
350
7E6
  0
SUN
  5
3A2
330
35D
100
AcDbSun
 90
        1
290
     0
 63
     7
421
 16777215
 40
1.0
291
     1
 91
  2455826
 92
 54000000
292
     0
 70
     2
 71
   256
280
     1
  0
DICTIONARY
  5
46A
330
2
100
AcDbDictionary
280
     1
281
     1
  3
ACAD_LAYERSTATES
360
46B
  0
DICTIONARY
  5
434
330
1F
100
AcDbDictionary
280
     1
281
     1
  3
ACAD_SORTENTS
360
435
  0
DICTIONARY
  5
76C
330
748
100
AcDbDictionary
280
     1
281
     1
  3
ACAD_SORTENTS
360
76D
  0
DICTIONARY
  5
512
330
511
100
AcDbDictionary
280
     1
281
     1
  3
AcDbContextDataManager
360
513
  0
DICTIONARY
  5
516
330
515
100
AcDbDictionary
280
     1
281
     1
  3
AcDbContextDataManager
360
517
  0
DICTIONARY
  5
51E
330
519
100
AcDbDictionary
280
     1
281
     1
  3
AcDbContextDataManager
360
51F
  0
DICTIONARY
  5
51B
330
51A
100
AcDbDictionary
280
     1
281
     1
  3
AcDbContextDataManager
360
51C
  0
DICTIONARY
  5
559
330
558
100
AcDbDictionary
280
     1
281
     1
  3
AcDbContextDataManager
360
55A
  0
DICTIONARY
  5
593
330
592
100
AcDbDictionary
280
     1
281
     1
  3
AcDbContextDataManager
360
594
  0
DICTIONARY
  5
5C7
330
5C6
100
AcDbDictionary
280
     1
281
     1
  3
AcDbContextDataManager
360
5C8
  0
DICTIONARY
  5
631
330
630
100
AcDbDictionary
280
     1
281
     1
  3
AcDbContextDataManager
360
632
  0
DICTIONARY
  5
667
330
666
100
AcDbDictionary
280
     1
281
     1
  3
AcDbContextDataManager
360
668
  0
DICTIONARY
  5
69D
330
69C
100
AcDbDictionary
280
     1
281
     1
  3
AcDbContextDataManager
360
69E
  0
DICTIONARY
  5
6D3
330
6D2
100
AcDbDictionary
280
     1
281
     1
  3
AcDbContextDataManager
360
6D4
  0
DICTIONARY
  5
741
330
740
100
AcDbDictionary
280
     1
281
     1
  3
AcDbContextDataManager
360
742
  0
DICTIONARY
  5
74C
330
74B
100
AcDbDictionary
280
     1
281
     1
  3
ASDK_XREC_ANNOTATION_SCALE_INFO
360
74D
  0
SUN
  5
750
330
74B
100
AcDbSun
 90
        1
290
     0
 63
     7
421
 16777215
 40
1.0
291
     1
 91
  2455826
 92
 54000000
292
     0
 70
     2
 71
   256
280
     1
  0
DICTIONARY
  5
756
330
755
100
AcDbDictionary
280
     1
281
     1
  3
ASDK_XREC_ANNOTATION_SCALE_INFO
360
757
  3
CPL_VPSCALE
360
759
  0
SUN
  5
75D
330
755
100
AcDbSun
 90
        1
290
     0
 63
     7
421
 16777215
 40
1.0
291
     1
 91
  2455826
 92
 54000000
292
     0
 70
     2
 71
   256
280
     1
  0
DICTIONARY
  5
7DF
330
7DE
100
AcDbDictionary
280
     1
281
     1
  3
AcDbContextDataManager
360
7E0
  0
DICTIONARY
  5
7E3
330
7E2
100
AcDbDictionary
280
     1
281
     1
  3
AcDbContextDataManager
360
7E4
  0
IMAGEDEF_REACTOR
  5
7E9
330
7E8
100
AcDbRasterImageDefReactor
 90
        2
330
7E8
  0
DICTIONARY
  5
445
102
{ACAD_REACTORS
330
C
102
}
330
C
100
AcDbDictionary
281
     1
  0
DICTIONARY
  5
3A7
102
{ACAD_REACTORS
330
C
102
}
330
C
100
AcDbDictionary
281
     1
  0
DICTIONARY
  5
D
102
{ACAD_REACTORS
330
C
102
}
330
C
100
AcDbDictionary
281
     1
  0
DICTIONARY
  5
3C8
102
{ACAD_REACTORS
330
C
102
}
330
C
100
AcDbDictionary
281
     1
  3
Rockpanel
350
3C7
  3
Rockpanel logo
350
7E7
  0
RASTERVARIABLES
  5
3D3
102
{ACAD_REACTORS
330
C
102
}
330
C
100
AcDbRasterVariables
 90
        0
 70
     0
 71
     1
 72
     1
  0
DICTIONARY
  5
1A
102
{ACAD_REACTORS
330
C
102
}
330
C
100
AcDbDictionary
281
     1
  3
Layout1
350
1E
  3
Layout3-GIP A4_ENG
350
744
  3
Model
350
22
  0
DICTIONARY
  5
399
102
{ACAD_REACTORS
330
C
102
}
330
C
100
AcDbDictionary
281
     1
  3
ByBlock
350
39B
  3
ByLayer
350
39A
  3
Global
350
39C
  0
DICTIONARY
  5
39F
102
{ACAD_REACTORS
330
C
102
}
330
C
100
AcDbDictionary
281
     1
  3
Standard
350
3A0
  0
DICTIONARY
  5
17
102
{ACAD_REACTORS
330
C
102
}
330
C
100
AcDbDictionary
281
     1
  3
Standard
350
18
  0
DICTIONARY
  5
19
102
{ACAD_REACTORS
330
C
102
}
330
C
100
AcDbDictionary
281
     1
  0
ACDBDICTIONARYWDFLT
  5
E
102
{ACAD_REACTORS
330
C
102
}
330
C
100
AcDbDictionary
281
     1
  3
Normal
350
F
100
AcDbDictionaryWithDefault
340
F
  0
DICTIONARY
  5
377
102
{ACAD_REACTORS
330
C
102
}
330
C
100
AcDbDictionary
281
     1
  3
A0
350
378
  3
A1
350
379
  3
A2
350
37A
  3
A3
350
37B
  3
A4
350
37C
  3
A5
350
37D
  3
A6
350
37E
  3
A7
350
37F
  3
A8
350
380
  3
A9
350
381
  3
B0
350
382
  3
B1
350
383
  3
B2
350
384
  3
B3
350
385
  3
B4
350
386
  3
B5
350
387
  3
B6
350
388
  3
B7
350
389
  3
B8
350
38A
  3
B9
350
38B
  3
C0
350
38C
  3
C1
350
38D
  3
C2
350
38E
  3
C3
350
38F
  3
C4
350
390
  3
C5
350
391
  3
C6
350
392
  3
C7
350
393
  3
C8
350
394
  3
C9
350
395
  3
D0
350
396
  3
D1
350
397
  3
D2
350
398
  0
DICTIONARY
  5
3A8
102
{ACAD_REACTORS
330
C
102
}
330
C
100
AcDbDictionary
281
     1
  0
DICTIONARY
  5
39D
102
{ACAD_REACTORS
330
C
102
}
330
C
100
AcDbDictionary
281
     1
  3
Standard
350
39E
  0
DICTIONARY
  5
35E
102
{ACAD_REACTORS
330
C
102
}
330
C
100
AcDbDictionary
281
     1
  3
2dWireframe
350
363
  3
Basic
350
366
  3
Brighten
350
36A
  3
ColorChange
350
36E
  3
Conceptual
350
368
  3
Dim
350
369
  3
EdgeColorOff
350
371
  3
Facepattern
350
36D
  3
Flat
350
35F
  3
FlatWithEdges
350
360
  3
Gouraud
350
361
  3
GouraudWithEdges
350
362
  3
Hidden
350
365
  3
JitterOff
350
36F
  3
Linepattern
350
36C
  3
Modeling
350
3A1
  3
OverhangOff
350
370
  3
Realistic
350
367
  3
Shaded
350
376
  3
Shaded with edges
350
375
  3
Shades of Gray
350
372
  3
Sketchy
350
373
  3
Thicken
350
36B
  3
Wireframe
350
364
  3
X-Ray
350
374
  0
XRECORD
  5
7EC
102
{ACAD_REACTORS
330
C
102
}
330
C
100
AcDbXrecord
280
     1
 90
        1
330
39E
  0
DICTIONARY
  5
5B
102
{ACAD_REACTORS
330
C
102
}
330
C
100
AcDbDictionary
281
     1
  3
CANNOSCALE
350
3A3
  3
CMLEADERSTYLE
350
3A5
  3
CTABLESTYLE
350
3A4
  3
DIMASSOC
350
5D
  3
HIDETEXT
350
5C
  3
HPLAYER
350
521
  3
MSLTSCALE
350
3A6
  0
DICTIONARY
  5
7E6
102
{ACAD_REACTORS
330
C
102
}
330
C
100
AcDbDictionary
281
     1
  0
DICTIONARY
  5
46B
102
{ACAD_REACTORS
330
46A
102
}
330
46A
100
AcDbDictionary
281
     1
  0
SORTENTSTABLE
  5
435
102
{ACAD_REACTORS
330
434
102
}
330
434
100
AcDbSortentsTable
330
1F
331
0
  5
46F
331
3F8
  5
519
331
3F9
  5
515
331
3FA
  5
411
331
3FB
  5
46E
331
3FC
  5
3FE
331
3FD
  5
3FF
331
3FE
  5
400
331
3FF
  5
401
331
400
  5
51A
331
401
  5
558
331
402
  5
55C
331
403
  5
402
331
404
  5
403
331
405
  5
404
331
406
  5
405
331
407
  5
596
331
408
  5
5C5
331
409
  5
406
331
40A
  5
407
331
40B
  5
408
331
40C
  5
409
331
40D
  5
40A
331
40E
  5
40B
331
40F
  5
40D
331
410
  5
40E
331
411
  5
410
331
4A8
  5
4A9
331
4A9
  5
4AA
331
4AA
  5
4AB
331
4AB
  5
4AC
331
511
  5
40C
331
515
  5
40F
331
519
  5
3FC
331
51A
  5
3FD
331
558
  5
357
331
55C
  5
358
331
592
  5
359
331
596
  5
35A
331
5C6
  5
592
  0
SORTENTSTABLE
  5
76D
102
{ACAD_REACTORS
330
76C
102
}
330
76C
100
AcDbSortentsTable
330
748
331
0
  5
755
331
74B
  5
751
331
751
  5
75F
331
755
  5
762
331
75E
  5
7DE
331
768
  5
75E
331
7DE
  5
7E2
331
7E2
  5
7E8
331
7E8
  5
74B
  0
DICTIONARY
  5
513
102
{ACAD_REACTORS
330
512
102
}
330
512
100
AcDbDictionary
281
     1
  3
ACDB_ANNOTATIONSCALES
350
514
  0
DICTIONARY
  5
517
102
{ACAD_REACTORS
330
516
102
}
330
516
100
AcDbDictionary
281
     1
  3
ACDB_ANNOTATIONSCALES
350
518
  0
DICTIONARY
  5
51F
102
{ACAD_REACTORS
330
51E
102
}
330
51E
100
AcDbDictionary
281
     1
  3
ACDB_ANNOTATIONSCALES
350
520
  0
DICTIONARY
  5
51C
102
{ACAD_REACTORS
330
51B
102
}
330
51B
100
AcDbDictionary
281
     1
  3
ACDB_ANNOTATIONSCALES
350
51D
  0
DICTIONARY
  5
55A
102
{ACAD_REACTORS
330
559
102
}
330
559
100
AcDbDictionary
281
     1
  3
ACDB_ANNOTATIONSCALES
350
55B
  0
DICTIONARY
  5
594
102
{ACAD_REACTORS
330
593
102
}
330
593
100
AcDbDictionary
281
     1
  3
ACDB_ANNOTATIONSCALES
350
595
  0
DICTIONARY
  5
5C8
102
{ACAD_REACTORS
330
5C7
102
}
330
5C7
100
AcDbDictionary
281
     1
  3
ACDB_ANNOTATIONSCALES
350
5C9
  0
DICTIONARY
  5
632
102
{ACAD_REACTORS
330
631
102
}
330
631
100
AcDbDictionary
281
     1
  3
ACDB_ANNOTATIONSCALES
350
633
  0
DICTIONARY
  5
668
102
{ACAD_REACTORS
330
667
102
}
330
667
100
AcDbDictionary
281
     1
  3
ACDB_ANNOTATIONSCALES
350
669
  0
DICTIONARY
  5
69E
102
{ACAD_REACTORS
330
69D
102
}
330
69D
100
AcDbDictionary
281
     1
  3
ACDB_ANNOTATIONSCALES
350
69F
  0
DICTIONARY
  5
6D4
102
{ACAD_REACTORS
330
6D3
102
}
330
6D3
100
AcDbDictionary
281
     1
  3
ACDB_ANNOTATIONSCALES
350
6D5
  0
DICTIONARY
  5
742
102
{ACAD_REACTORS
330
741
102
}
330
741
100
AcDbDictionary
281
     1
  3
ACDB_ANNOTATIONSCALES
350
743
  0
XRECORD
  5
74D
102
{ACAD_REACTORS
330
74C
102
}
330
74C
100
AcDbXrecord
280
     1
 90
        1
340
378
  0
XRECORD
  5
757
102
{ACAD_REACTORS
330
756
102
}
330
756
100
AcDbXrecord
280
     1
 90
        1
340
37A
  0
XRECORD
  5
759
102
{ACAD_REACTORS
330
756
102
}
330
756
100
AcDbXrecord
280
     1
 40
0.0
  0
DICTIONARY
  5
7E0
102
{ACAD_REACTORS
330
7DF
102
}
330
7DF
100
AcDbDictionary
281
     1
  3
ACDB_ANNOTATIONSCALES
350
7E1
  0
DICTIONARY
  5
7E4
102
{ACAD_REACTORS
330
7E3
102
}
330
7E3
100
AcDbDictionary
281
     1
  3
ACDB_ANNOTATIONSCALES
350
7E5
  0
IMAGEDEF
  5
3C7
102
{ACAD_REACTORS
330
3C8
102
}
330
3C8
100
AcDbRasterImageDef
 90
        0
  1
C:\Users\waldmann\Pictures\Rockpanel.png
 10
1334.0
 20
426.0
 11
0.3527777777777777
 21
0.3527777777777777
280
     1
281
     5
  0
IMAGEDEF
  5
7E7
102
{ACAD_REACTORS
330
3C8
330
7E9
102
}
330
3C8
100
AcDbRasterImageDef
 90
        0
  1
P:/controle documentatie/website/Details GIP/1.17.2017/Rockpanel logo.png
 10
1334.0
 20
426.0
 11
0.3527336860670194
 21
0.3527336860670194
280
     1
281
     3
  0
LAYOUT
  5
1E
102
{ACAD_REACTORS
330
1A
102
}
330
1A
100
AcDbPlotSettings
  1

  2
\\AUTO\HP LaserJet 5 Programmeurs
  4

  6

 40
0.0
 41
0.0
 42
0.0
 43
0.0
 44
0.0
 45
0.0
 46
0.0
 47
0.0
 48
0.0
 49
0.0
140
0.0
141
0.0
142
1.0
143
1.0
 70
   688
 72
     0
 73
     0
 74
     5
  7
Default R14 pen assignments.ctb
 75
    16
 76
     0
 77
     2
 78
   300
147
1.0
148
0.0
149
0.0
100
AcDbLayout
  1
Layout1
 70
     1
 71
     1
 10
0.0
 20
0.0
 11
420.0
 21
297.0
 12
0.0
 22
0.0
 32
0.0
 14
1.000000000000000E+20
 24
1.000000000000000E+20
 34
1.000000000000000E+20
 15
-1.000000000000000E+20
 25
-1.000000000000000E+20
 35
-1.000000000000000E+20
146
0.0
 13
0.0
 23
0.0
 33
0.0
 16
1.0
 26
0.0
 36
0.0
 17
0.0
 27
1.0
 37
0.0
 76
     0
330
1B
  0
LAYOUT
  5
744
102
{ACAD_REACTORS
330
1A
102
}
330
1A
100
AcDbPlotSettings
  1

  2
PDF24 PDF
  4
A4
  6

 40
0.0
 41
0.0423333333333333
 42
0.0
 43
0.0
 44
210.0
 45
297.0
 46
0.0149663299663132
 47
-0.0000000000000138
 48
232.9534537159595
 49
-0.0000000533422622
140
442.9534537159595
141
296.9999999466577
142
1.0
143
1.000142556795413
 70
   758
 72
     1
 73
     0
 74
     4
  7
displaycolors-darkbg.ctb
 75
     0
 76
     0
 77
     2
 78
   300
147
0.9998574635241305
148
-232.9534537159595
149
0.0000000533422622
100
AcDbLayout
  1
Layout3-GIP A4_ENG
 70
     1
 71
     2
 10
323.5445291550247
 20
-21.18376289401897
 11
743.7028543503372
 21
275.8692461391842
 12
0.0
 22
0.0
 32
0.0
 14
232.9534537159595
 24
-0.000000053342319
 34
0.0
 15
442.9534537159595
 25
296.9999999466577
 35
0.0
146
0.0
 13
0.0
 23
0.0
 33
0.0
 16
1.0
 26
0.0
 36
0.0
 17
0.0
 27
1.0
 37
0.0
 76
     0
330
748
331
74B
1001
ACAD_PSEXT
1000
PDFCreator
1000
PDFCreator
1000
pdfcmon
1000
eDoc Printer
1070
     0
1001
AcadAnnoAV
1070
     1
1001
PLOTTRANSPARENCY
1071
        1
  0
LAYOUT
  5
22
102
{ACAD_REACTORS
330
1A
102
}
330
1A
100
AcDbPlotSettings
  1

  2
\\AUTO\HP LaserJet 5 Programmeurs
  4

  6

 40
0.0
 41
0.0
 42
0.0
 43
0.0
 44
0.0
 45
0.0
 46
0.0
 47
0.0
 48
0.0
 49
0.0
140
0.0
141
0.0
142
1.0
143
1.0
 70
  1712
 72
     0
 73
     0
 74
     0
  7
Default R14 pen assignments.ctb
 75
     0
 76
     0
 77
     2
 78
   300
147
1.0
148
0.0
149
0.0
100
AcDbLayout
  1
Model
 70
     1
 71
     0
 10
0.0
 20
0.0
 11
12.0
 21
9.0
 12
0.0
 22
0.0
 32
0.0
 14
412.4063369375345
 24
681.0
 34
0.0
 15
823.9543112619253
 25
1002.5
 35
0.0
146
0.0
 13
0.0
 23
0.0
 33
0.0
 16
1.0
 26
0.0
 36
0.0
 17
0.0
 27
1.0
 37
0.0
 76
     0
330
1F
331
35D
  0
MATERIAL
  5
39B
102
{ACAD_REACTORS
330
399
102
}
330
399
100
AcDbMaterial
  1
ByBlock
 72
     1
 94
      127
  0
MATERIAL
  5
39A
102
{ACAD_REACTORS
330
399
102
}
330
399
100
AcDbMaterial
  1
ByLayer
 72
     1
 94
      127
  0
MATERIAL
  5
39C
102
{ACAD_REACTORS
330
399
102
}
330
399
100
AcDbMaterial
  1
Global
 72
     1
 94
      127
  0
MLEADERSTYLE
  5
3A0
102
{ACAD_REACTORS
330
39F
102
}
330
39F
100
AcDbMLeaderStyle
179
     2
170
     2
171
     1
172
     0
 90
        2
 40
0.0
 41
0.0
173
     1
 91
-1056964608
340
14
 92
       -2
290
     1
 42
2.0
291
     1
 43
8.0
  3
Standard
341
0
 44
4.0
300

342
11
174
     1
178
     6
175
     1
176
     0
 93
-1056964608
 45
4.0
292
     0
297
     0
 46
4.0
343
0
 94
-1056964608
 47
1.0
 49
1.0
140
1.0
293
     1
141
0.0
294
     1
177
     0
142
1.0
295
     0
296
     0
143
3.75
271
     0
272
     9
273
     9
  0
MLINESTYLE
  5
18
102
{ACAD_REACTORS
330
17
102
}
330
17
100
AcDbMlineStyle
  2
STANDARD
 70
     0
  3

 62
   256
 51
90.0
 52
90.0
 71
     2
 49
0.5
 62
   256
  6
BYLAYER
 49
-0.5
 62
   256
  6
BYLAYER
  0
ACDBPLACEHOLDER
  5
F
102
{ACAD_REACTORS
330
E
102
}
330
E
  0
SCALE
  5
378
102
{ACAD_REACTORS
330
377
102
}
330
377
100
AcDbScale
 70
     0
300
1:1
140
1.0
141
1.0
290
     1
  0
SCALE
  5
379
102
{ACAD_REACTORS
330
377
102
}
330
377
100
AcDbScale
 70
     0
300
1:2
140
1.0
141
2.0
290
     0
  0
SCALE
  5
37A
102
{ACAD_REACTORS
330
377
102
}
330
377
100
AcDbScale
 70
     0
300
1:4
140
1.0
141
4.0
290
     0
  0
SCALE
  5
37B
102
{ACAD_REACTORS
330
377
102
}
330
377
100
AcDbScale
 70
     0
300
1:5
140
1.0
141
5.0
290
     0
  0
SCALE
  5
37C
102
{ACAD_REACTORS
330
377
102
}
330
377
100
AcDbScale
 70
     0
300
1:8
140
1.0
141
8.0
290
     0
  0
SCALE
  5
37D
102
{ACAD_REACTORS
330
377
102
}
330
377
100
AcDbScale
 70
     0
300
1:10
140
1.0
141
10.0
290
     0
  0
SCALE
  5
37E
102
{ACAD_REACTORS
330
377
102
}
330
377
100
AcDbScale
 70
     0
300
1:16
140
1.0
141
16.0
290
     0
  0
SCALE
  5
37F
102
{ACAD_REACTORS
330
377
102
}
330
377
100
AcDbScale
 70
     0
300
1:20
140
1.0
141
20.0
290
     0
  0
SCALE
  5
380
102
{ACAD_REACTORS
330
377
102
}
330
377
100
AcDbScale
 70
     0
300
1:30
140
1.0
141
30.0
290
     0
  0
SCALE
  5
381
102
{ACAD_REACTORS
330
377
102
}
330
377
100
AcDbScale
 70
     0
300
1:40
140
1.0
141
40.0
290
     0
  0
SCALE
  5
382
102
{ACAD_REACTORS
330
377
102
}
330
377
100
AcDbScale
 70
     0
300
1:50
140
1.0
141
50.0
290
     0
  0
SCALE
  5
383
102
{ACAD_REACTORS
330
377
102
}
330
377
100
AcDbScale
 70
     0
300
1:100
140
1.0
141
100.0
290
     0
  0
SCALE
  5
384
102
{ACAD_REACTORS
330
377
102
}
330
377
100
AcDbScale
 70
     0
300
2:1
140
2.0
141
1.0
290
     0
  0
SCALE
  5
385
102
{ACAD_REACTORS
330
377
102
}
330
377
100
AcDbScale
 70
     0
300
4:1
140
4.0
141
1.0
290
     0
  0
SCALE
  5
386
102
{ACAD_REACTORS
330
377
102
}
330
377
100
AcDbScale
 70
     0
300
8:1
140
8.0
141
1.0
290
     0
  0
SCALE
  5
387
102
{ACAD_REACTORS
330
377
102
}
330
377
100
AcDbScale
 70
     0
300
10:1
140
10.0
141
1.0
290
     0
  0
SCALE
  5
388
102
{ACAD_REACTORS
330
377
102
}
330
377
100
AcDbScale
 70
     0
300
100:1
140
100.0
141
1.0
290
     0
  0
SCALE
  5
389
102
{ACAD_REACTORS
330
377
102
}
330
377
100
AcDbScale
 70
     0
300
1/128" = 1'-0"
140
0.0078125
141
12.0
290
     0
  0
SCALE
  5
38A
102
{ACAD_REACTORS
330
377
102
}
330
377
100
AcDbScale
 70
     0
300
1/64" = 1'-0"
140
0.015625
141
12.0
290
     0
  0
SCALE
  5
38B
102
{ACAD_REACTORS
330
377
102
}
330
377
100
AcDbScale
 70
     0
300
1/32" = 1'-0"
140
0.03125
141
12.0
290
     0
  0
SCALE
  5
38C
102
{ACAD_REACTORS
330
377
102
}
330
377
100
AcDbScale
 70
     0
300
1/16" = 1'-0"
140
0.0625
141
12.0
290
     0
  0
SCALE
  5
38D
102
{ACAD_REACTORS
330
377
102
}
330
377
100
AcDbScale
 70
     0
300
3/32" = 1'-0"
140
0.09375
141
12.0
290
     0
  0
SCALE
  5
38E
102
{ACAD_REACTORS
330
377
102
}
330
377
100
AcDbScale
 70
     0
300
1/8" = 1'-0"
140
0.125
141
12.0
290
     0
  0
SCALE
  5
38F
102
{ACAD_REACTORS
330
377
102
}
330
377
100
AcDbScale
 70
     0
300
3/16" = 1'-0"
140
0.1875
141
12.0
290
     0
  0
SCALE
  5
390
102
{ACAD_REACTORS
330
377
102
}
330
377
100
AcDbScale
 70
     0
300
1/4" = 1'-0"
140
0.25
141
12.0
290
     0
  0
SCALE
  5
391
102
{ACAD_REACTORS
330
377
102
}
330
377
100
AcDbScale
 70
     0
300
3/8" = 1'-0"
140
0.375
141
12.0
290
     0
  0
SCALE
  5
392
102
{ACAD_REACTORS
330
377
102
}
330
377
100
AcDbScale
 70
     0
300
1/2" = 1'-0"
140
0.5
141
12.0
290
     0
  0
SCALE
  5
393
102
{ACAD_REACTORS
330
377
102
}
330
377
100
AcDbScale
 70
     0
300
3/4" = 1'-0"
140
0.75
141
12.0
290
     0
  0
SCALE
  5
394
102
{ACAD_REACTORS
330
377
102
}
330
377
100
AcDbScale
 70
     0
300
1" = 1'-0"
140
1.0
141
12.0
290
     0
  0
SCALE
  5
395
102
{ACAD_REACTORS
330
377
102
}
330
377
100
AcDbScale
 70
     0
300
1-1/2" = 1'-0"
140
1.5
141
12.0
290
     0
  0
SCALE
  5
396
102
{ACAD_REACTORS
330
377
102
}
330
377
100
AcDbScale
 70
     0
300
3" = 1'-0"
140
3.0
141
12.0
290
     0
  0
SCALE
  5
397
102
{ACAD_REACTORS
330
377
102
}
330
377
100
AcDbScale
 70
     0
300
6" = 1'-0"
140
6.0
141
12.0
290
     0
  0
SCALE
  5
398
102
{ACAD_REACTORS
330
377
102
}
330
377
100
AcDbScale
 70
     0
300
1'-0" = 1'-0"
140
12.0
141
12.0
290
     0
  0
TABLESTYLE
  5
39E
102
{ACAD_REACTORS
330
39D
102
}
102
{ACAD_XDICTIONARY
360
7EA
102
}
330
39D
100
AcDbTableStyle
  3
Standard
 70
     0
 71
     0
 40
1.5
 41
1.5
280
     0
281
     0
  7
Standard
140
4.5
170
     2
 62
     0
 63
   257
283
     0
 90
        4
 91
        0
  1

274
    -2
284
     1
 64
     0
275
    -2
285
     1
 65
     0
276
    -2
286
     1
 66
     0
277
    -2
287
     1
 67
     0
278
    -2
288
     1
 68
     0
279
    -2
289
     1
 69
     0
  7
Standard
140
6.0
170
     5
 62
     0
 63
   257
283
     0
 90
        4
 91
        0
  1

274
    -2
284
     1
 64
     0
275
    -2
285
     1
 65
     0
276
    -2
286
     1
 66
     0
277
    -2
287
     1
 67
     0
278
    -2
288
     1
 68
     0
279
    -2
289
     1
 69
     0
  7
Standard
140
4.5
170
     5
 62
     0
 63
   257
283
     0
 90
        4
 91
        0
  1

274
    -2
284
     1
 64
     0
275
    -2
285
     1
 65
     0
276
    -2
286
     1
 66
     0
277
    -2
287
     1
 67
     0
278
    -2
288
     1
 68
     0
279
    -2
289
     1
 69
     0
  0
VISUALSTYLE
  5
363
102
{ACAD_REACTORS
330
35E
102
}
330
35E
100
AcDbVisualStyle
  2
2dWireframe
 70
     4
177
     2
291
     0
 71
     0
176
     1
 72
     2
176
     1
 73
     0
176
     1
 90
        0
176
     1
 40
0.6
176
     1
 41
30.0
176
     1
 62
     5
 63
     7
421
 16777215
176
     1
 74
     1
176
     1
 91
        4
176
     1
 64
     7
176
     1
 65
   257
176
     1
 75
     1
176
     1
175
     1
176
     1
 42
1.0
176
     1
 92
        0
176
     1
 66
   257
176
     1
 43
1.0
176
     1
 76
     1
176
     1
 77
     6
176
     1
 78
     2
176
     1
 67
     7
176
     1
 79
     5
176
     1
170
     0
176
     1
171
     0
176
     1
290
     0
176
     1
 93
        1
176
     1
 44
0.0
176
     1
173
     0
176
     1
  0
VISUALSTYLE
  5
366
102
{ACAD_REACTORS
330
35E
102
}
330
35E
100
AcDbVisualStyle
  2
Basic
 70
     7
177
     2
291
     1
 71
     1
176
     1
 72
     0
176
     1
 73
     1
176
     1
 90
        0
176
     1
 40
0.6
176
     1
 41
30.0
176
     1
 62
     5
 63
     7
421
 16777215
176
     1
 74
     0
176
     1
 91
        4
176
     1
 64
     7
176
     1
 65
   257
176
     1
 75
     1
176
     1
175
     1
176
     1
 42
1.0
176
     1
 92
        8
176
     1
 66
     7
176
     1
 43
1.0
176
     1
 76
     1
176
     1
 77
     6
176
     1
 78
     2
176
     1
 67
     7
176
     1
 79
     5
176
     1
170
     0
176
     1
171
     0
176
     1
290
     0
176
     1
 93
        1
176
     1
 44
0.0
176
     1
173
     0
176
     1
  0
VISUALSTYLE
  5
36A
102
{ACAD_REACTORS
330
35E
102
}
330
35E
100
AcDbVisualStyle
  2
Brighten
 70
    12
177
     2
291
     1
 71
     2
176
     1
 72
     2
176
     1
 73
     0
176
     1
 90
        0
176
     1
 40
0.6
176
     1
 41
30.0
176
     1
 62
     5
 63
     7
421
 16777215
176
     1
 74
     1
176
     1
 91
        4
176
     1
 64
     7
176
     1
 65
   257
176
     1
 75
     1
176
     1
175
     1
176
     1
 42
1.0
176
     1
 92
        8
176
     1
 66
     7
176
     1
 43
1.0
176
     1
 76
     1
176
     1
 77
     6
176
     1
 78
     2
176
     1
 67
     7
176
     1
 79
     5
176
     1
170
     0
176
     1
171
     0
176
     1
290
     0
176
     1
 93
        1
176
     1
 44
50.0
176
     1
173
     0
176
     1
  0
VISUALSTYLE
  5
36E
102
{ACAD_REACTORS
330
35E
102
}
330
35E
100
AcDbVisualStyle
  2
ColorChange
 70
    16
177
     2
291
     1
 71
     2
176
     1
 72
     2
176
     1
 73
     3
176
     1
 90
        0
176
     1
 40
0.6
176
     1
 41
30.0
176
     1
 62
     5
 63
     8
421
  8421504
176
     1
 74
     1
176
     1
 91
        4
176
     1
 64
     7
176
     1
 65
   257
176
     1
 75
     1
176
     1
175
     1
176
     1
 42
1.0
176
     1
 92
        8
176
     1
 66
     8
424
  8421504
176
     1
 43
1.0
176
     1
 76
     1
176
     1
 77
     6
176
     1
 78
     2
176
     1
 67
     7
176
     1
 79
     5
176
     1
170
     0
176
     1
171
     0
176
     1
290
     0
176
     1
 93
        1
176
     1
 44
0.0
176
     1
173
     0
176
     1
  0
VISUALSTYLE
  5
368
102
{ACAD_REACTORS
330
35E
102
}
330
35E
100
AcDbVisualStyle
  2
Conceptual
 70
     9
177
     2
291
     0
 71
     3
176
     1
 72
     2
176
     1
 73
     0
176
     1
 90
        0
176
     1
 40
0.6
176
     1
 41
30.0
176
     1
 62
     5
 63
     7
421
 16777215
176
     1
 74
     2
176
     1
 91
        2
176
     1
 64
     7
176
     1
 65
   257
176
     1
 75
     1
176
     1
175
     1
176
     1
 42
179.0
176
     1
 92
        8
176
     1
 66
     7
176
     1
 43
1.0
176
     1
 76
     1
176
     1
 77
     6
176
     1
 78
     2
176
     1
 67
     7
176
     1
 79
     3
176
     1
170
     0
176
     1
171
     0
176
     1
290
     0
176
     1
 93
        1
176
     1
 44
0.0
176
     1
173
     0
176
     1
  0
VISUALSTYLE
  5
369
102
{ACAD_REACTORS
330
35E
102
}
330
35E
100
AcDbVisualStyle
  2
Dim
 70
    11
177
     2
291
     1
 71
     2
176
     1
 72
     2
176
     1
 73
     0
176
     1
 90
        0
176
     1
 40
0.6
176
     1
 41
30.0
176
     1
 62
     5
 63
     7
421
 16777215
176
     1
 74
     1
176
     1
 91
        4
176
     1
 64
     7
176
     1
 65
   257
176
     1
 75
     1
176
     1
175
     1
176
     1
 42
1.0
176
     1
 92
        8
176
     1
 66
     7
176
     1
 43
1.0
176
     1
 76
     1
176
     1
 77
     6
176
     1
 78
     2
176
     1
 67
     7
176
     1
 79
     5
176
     1
170
     0
176
     1
171
     0
176
     1
290
     0
176
     1
 93
        1
176
     1
 44
-50.0
176
     1
173
     0
176
     1
  0
VISUALSTYLE
  5
371
102
{ACAD_REACTORS
330
35E
102
}
330
35E
100
AcDbVisualStyle
  2
EdgeColorOff
 70
    22
177
     2
291
     1
 71
     2
176
     0
 72
     2
176
     0
 73
     0
176
     0
 90
        0
176
     0
 40
0.6
176
     0
 41
30.0
176
     0
 62
     5
 63
     7
421
 16777215
176
     0
 74
     1
176
     0
 91
        4
176
     0
 64
     7
176
     0
 65
   257
176
     0
 75
     1
176
     0
175
     1
176
     0
 42
1.0
176
     0
 92
        8
176
     2
 66
     7
176
     0
 43
1.0
176
     0
 76
     1
176
     0
 77
     6
176
     0
 78
     2
176
     0
 67
     7
176
     0
 79
     5
176
     0
170
     0
176
     0
171
     0
176
     0
290
     0
176
     0
 93
        1
176
     0
 44
0.0
176
     0
173
     0
176
     0
  0
VISUALSTYLE
  5
36D
102
{ACAD_REACTORS
330
35E
102
}
330
35E
100
AcDbVisualStyle
  2
Facepattern
 70
    15
177
     2
291
     1
 71
     2
176
     1
 72
     2
176
     1
 73
     0
176
     1
 90
        0
176
     1
 40
0.6
176
     1
 41
30.0
176
     1
 62
     5
 63
     7
421
 16777215
176
     1
 74
     1
176
     1
 91
        4
176
     1
 64
     7
176
     1
 65
   257
176
     1
 75
     1
176
     1
175
     1
176
     1
 42
1.0
176
     1
 92
        8
176
     1
 66
     7
176
     1
 43
1.0
176
     1
 76
     1
176
     1
 77
     6
176
     1
 78
     2
176
     1
 67
     7
176
     1
 79
     5
176
     1
170
     0
176
     1
171
     0
176
     1
290
     0
176
     1
 93
        1
176
     1
 44
0.0
176
     1
173
     0
176
     1
  0
VISUALSTYLE
  5
35F
102
{ACAD_REACTORS
330
35E
102
}
330
35E
100
AcDbVisualStyle
  2
Flat
 70
     0
177
     2
291
     1
 71
     2
176
     1
 72
     1
176
     1
 73
     1
176
     1
 90
        2
176
     1
 40
0.6
176
     1
 41
30.0
176
     1
 62
     5
 63
     7
421
 16777215
176
     1
 74
     0
176
     1
 91
        0
176
     1
 64
     7
176
     1
 65
   257
176
     1
 75
     1
176
     1
175
     1
176
     1
 42
1.0
176
     1
 92
        8
176
     1
 66
     7
176
     1
 43
1.0
176
     1
 76
     1
176
     1
 77
     6
176
     1
 78
     2
176
     1
 67
     7
176
     1
 79
     5
176
     1
170
     0
176
     1
171
     0
176
     1
290
     0
176
     1
 93
       13
176
     1
 44
0.0
176
     1
173
     0
176
     1
  0
VISUALSTYLE
  5
360
102
{ACAD_REACTORS
330
35E
102
}
330
35E
100
AcDbVisualStyle
  2
FlatWithEdges
 70
     1
177
     2
291
     1
 71
     2
176
     1
 72
     1
176
     1
 73
     1
176
     1
 90
        2
176
     1
 40
0.6
176
     1
 41
30.0
176
     1
 62
     5
 63
     7
421
 16777215
176
     1
 74
     1
176
     1
 91
        0
176
     1
 64
     7
176
     1
 65
   257
176
     1
 75
     1
176
     1
175
     1
176
     1
 42
1.0
176
     1
 92
        0
176
     1
 66
   257
176
     1
 43
1.0
176
     1
 76
     1
176
     1
 77
     6
176
     1
 78
     2
176
     1
 67
     7
176
     1
 79
     5
176
     1
170
     0
176
     1
171
     0
176
     1
290
     0
176
     1
 93
       13
176
     1
 44
0.0
176
     1
173
     0
176
     1
  0
VISUALSTYLE
  5
361
102
{ACAD_REACTORS
330
35E
102
}
330
35E
100
AcDbVisualStyle
  2
Gouraud
 70
     2
177
     2
291
     1
 71
     2
176
     1
 72
     2
176
     1
 73
     1
176
     1
 90
        2
176
     1
 40
0.6
176
     1
 41
30.0
176
     1
 62
     5
 63
     7
421
 16777215
176
     1
 74
     0
176
     1
 91
        0
176
     1
 64
     7
176
     1
 65
   257
176
     1
 75
     1
176
     1
175
     1
176
     1
 42
1.0
176
     1
 92
        0
176
     1
 66
     7
176
     1
 43
1.0
176
     1
 76
     1
176
     1
 77
     6
176
     1
 78
     2
176
     1
 67
     7
176
     1
 79
     5
176
     1
170
     0
176
     1
171
     0
176
     1
290
     0
176
     1
 93
       13
176
     1
 44
0.0
176
     1
173
     0
176
     1
  0
VISUALSTYLE
  5
362
102
{ACAD_REACTORS
330
35E
102
}
330
35E
100
AcDbVisualStyle
  2
GouraudWithEdges
 70
     3
177
     2
291
     1
 71
     2
176
     1
 72
     2
176
     1
 73
     1
176
     1
 90
        2
176
     1
 40
0.6
176
     1
 41
30.0
176
     1
 62
     5
 63
     7
421
 16777215
176
     1
 74
     1
176
     1
 91
        0
176
     1
 64
     7
176
     1
 65
   257
176
     1
 75
     1
176
     1
175
     1
176
     1
 42
1.0
176
     1
 92
        0
176
     1
 66
   257
176
     1
 43
1.0
176
     1
 76
     1
176
     1
 77
     6
176
     1
 78
     2
176
     1
 67
     7
176
     1
 79
     5
176
     1
170
     0
176
     1
171
     0
176
     1
290
     0
176
     1
 93
       13
176
     1
 44
0.0
176
     1
173
     0
176
     1
  0
VISUALSTYLE
  5
365
102
{ACAD_REACTORS
330
35E
102
}
330
35E
100
AcDbVisualStyle
  2
Hidden
 70
     6
177
     2
291
     0
 71
     1
176
     1
 72
     2
176
     1
 73
     2
176
     1
 90
        0
176
     1
 40
0.6
176
     1
 41
30.0
176
     1
 62
     5
 63
     7
421
 16777215
176
     1
 74
     2
176
     1
 91
        2
176
     1
 64
     7
176
     1
 65
   257
176
     1
 75
     2
176
     1
175
     1
176
     1
 42
40.0
176
     1
 92
        0
176
     1
 66
   257
176
     1
 43
1.0
176
     1
 76
     1
176
     1
 77
     6
176
     1
 78
     2
176
     1
 67
     7
176
     1
 79
     3
176
     1
170
     0
176
     1
171
     0
176
     1
290
     0
176
     1
 93
        1
176
     1
 44
0.0
176
     1
173
     0
176
     1
  0
VISUALSTYLE
  5
36F
102
{ACAD_REACTORS
330
35E
102
}
330
35E
100
AcDbVisualStyle
  2
JitterOff
 70
    20
177
     2
291
     1
 71
     2
176
     0
 72
     2
176
     0
 73
     0
176
     0
 90
        0
176
     0
 40
0.6
176
     0
 41
30.0
176
     0
 62
     5
 63
     7
421
 16777215
176
     0
 74
     1
176
     0
 91
        4
176
     0
 64
     7
176
     0
 65
   257
176
     0
 75
     1
176
     0
175
     1
176
     0
 42
1.0
176
     0
 92
       10
176
     2
 66
     7
176
     0
 43
1.0
176
     0
 76
     1
176
     0
 77
     6
176
     0
 78
     2
176
     0
 67
     7
176
     0
 79
     5
176
     0
170
     0
176
     0
171
     0
176
     0
290
     0
176
     0
 93
        1
176
     0
 44
0.0
176
     0
173
     0
176
     0
  0
VISUALSTYLE
  5
36C
102
{ACAD_REACTORS
330
35E
102
}
330
35E
100
AcDbVisualStyle
  2
Linepattern
 70
    14
177
     2
291
     1
 71
     2
176
     1
 72
     2
176
     1
 73
     0
176
     1
 90
        0
176
     1
 40
0.6
176
     1
 41
30.0
176
     1
 62
     5
 63
     7
421
 16777215
176
     1
 74
     1
176
     1
 91
        4
176
     1
 64
     7
176
     1
 65
   257
176
     1
 75
     7
176
     1
175
     7
176
     1
 42
1.0
176
     1
 92
        8
176
     1
 66
     7
176
     1
 43
1.0
176
     1
 76
     1
176
     1
 77
     6
176
     1
 78
     2
176
     1
 67
     7
176
     1
 79
     5
176
     1
170
     0
176
     1
171
     0
176
     1
290
     0
176
     1
 93
        1
176
     1
 44
0.0
176
     1
173
     0
176
     1
  0
VISUALSTYLE
  5
3A1
102
{ACAD_REACTORS
330
35E
102
}
330
35E
100
AcDbVisualStyle
  2
Modeling
 70
    10
177
     2
291
     0
 71
     2
176
     1
 72
     3
176
     1
 73
     0
176
     1
 90
        2
176
     1
 40
0.6
176
     1
 41
30.0
176
     1
 62
     5
 63
     7
421
 16777215
176
     1
 74
     2
176
     1
 91
        0
176
     1
 64
     7
176
     1
 65
   257
176
     1
 75
     1
176
     1
175
     1
176
     1
 42
180.0
176
     1
 92
        8
176
     1
 66
     8
424
  7895160
176
     1
 43
1.0
176
     1
 76
     1
176
     1
 77
     6
176
     1
 78
     2
176
     1
 67
     7
176
     1
 79
     5
176
     1
170
     0
176
     1
171
     0
176
     1
290
     0
176
     1
 93
       13
176
     1
 44
0.0
176
     1
173
     0
176
     1
  0
VISUALSTYLE
  5
370
102
{ACAD_REACTORS
330
35E
102
}
330
35E
100
AcDbVisualStyle
  2
OverhangOff
 70
    21
177
     2
291
     1
 71
     2
176
     0
 72
     2
176
     0
 73
     0
176
     0
 90
        0
176
     0
 40
0.6
176
     0
 41
30.0
176
     0
 62
     5
 63
     7
421
 16777215
176
     0
 74
     1
176
     0
 91
        4
176
     0
 64
     7
176
     0
 65
   257
176
     0
 75
     1
176
     0
175
     1
176
     0
 42
1.0
176
     0
 92
        9
176
     2
 66
     7
176
     0
 43
1.0
176
     0
 76
     1
176
     0
 77
     6
176
     0
 78
     2
176
     0
 67
     7
176
     0
 79
     5
176
     0
170
     0
176
     0
171
     0
176
     0
290
     0
176
     0
 93
        1
176
     0
 44
0.0
176
     0
173
     0
176
     0
  0
VISUALSTYLE
  5
367
102
{ACAD_REACTORS
330
35E
102
}
330
35E
100
AcDbVisualStyle
  2
Realistic
 70
     8
177
     2
291
     0
 71
     2
176
     1
 72
     3
176
     1
 73
     0
176
     1
 90
        2
176
     1
 40
0.6
176
     1
 41
30.0
176
     1
 62
     5
 63
     7
421
 16777215
176
     1
 74
     0
176
     1
 91
        0
176
     1
 64
     7
176
     1
 65
   257
176
     1
 75
     1
176
     1
175
     1
176
     1
 42
1.0
176
     1
 92
        8
176
     1
 66
   257
176
     1
 43
1.0
176
     1
 76
     1
176
     1
 77
     6
176
     1
 78
     2
176
     1
 67
     7
176
     1
 79
     3
176
     1
170
     0
176
     1
171
     0
176
     1
290
     0
176
     1
 93
       13
176
     1
 44
0.0
176
     1
173
     0
176
     1
  0
VISUALSTYLE
  5
376
102
{ACAD_REACTORS
330
35E
102
}
330
35E
100
AcDbVisualStyle
  2
Shaded
 70
    27
177
     2
291
     0
 71
     2
176
     1
 72
     2
176
     1
 73
     1
176
     1
 90
        2
176
     1
 40
0.6
176
     1
 41
30.0
176
     1
 62
     5
 63
     7
421
 16777215
176
     1
 74
     0
176
     1
 91
        4
176
     1
 64
     7
176
     1
 65
   257
176
     1
 75
     1
176
     1
175
     1
176
     1
 42
1.0
176
     1
 92
        8
176
     1
 66
   257
176
     1
 43
1.0
176
     1
 76
     1
176
     1
 77
     6
176
     1
 78
     2
176
     1
 67
     8
425
  7895160
176
     1
 79
     3
176
     1
170
     0
176
     1
171
     0
176
     1
290
     0
176
     1
 93
        5
176
     1
 44
0.0
176
     1
173
     0
176
     1
  0
VISUALSTYLE
  5
375
102
{ACAD_REACTORS
330
35E
102
}
330
35E
100
AcDbVisualStyle
  2
Shaded with edges
 70
    26
177
     2
291
     0
 71
     2
176
     1
 72
     2
176
     1
 73
     1
176
     1
 90
        2
176
     1
 40
0.6
176
     1
 41
30.0
176
     1
 62
     5
 63
     7
421
 16777215
176
     1
 74
     1
176
     1
 91
       10
176
     1
 64
     7
176
     1
 65
   257
176
     1
 75
     2
176
     1
175
     1
176
     1
 42
1.0
176
     1
 92
        8
176
     1
 66
   257
176
     1
 43
1.0
176
     1
 76
     1
176
     1
 77
     6
176
     1
 78
     2
176
     1
 67
     7
176
     1
 79
     3
176
     1
170
     0
176
     1
171
     0
176
     1
290
     0
176
     1
 93
        5
176
     1
 44
0.0
176
     1
173
     0
176
     1
  0
VISUALSTYLE
  5
372
102
{ACAD_REACTORS
330
35E
102
}
330
35E
100
AcDbVisualStyle
  2
Shades of Gray
 70
    23
177
     2
291
     0
 71
     2
176
     1
 72
     2
176
     1
 73
     3
176
     1
 90
        0
176
     1
 40
0.6
176
     1
 41
30.0
176
     1
 62
     5
 63
     7
421
 16777215
176
     1
 74
     2
176
     1
 91
        2
176
     1
 64
     7
176
     1
 65
     7
176
     1
 75
     1
176
     1
175
     1
176
     1
 42
40.0
176
     1
 92
        8
176
     1
 66
     7
176
     1
 43
1.0
176
     1
 76
     1
176
     1
 77
     6
176
     1
 78
     2
176
     1
 67
     7
176
     1
 79
     3
176
     1
170
     0
176
     1
171
     0
176
     1
290
     0
176
     1
 93
        1
176
     1
 44
0.0
176
     1
173
     0
176
     1
  0
VISUALSTYLE
  5
373
102
{ACAD_REACTORS
330
35E
102
}
330
35E
100
AcDbVisualStyle
  2
Sketchy
 70
    24
177
     2
291
     0
 71
     1
176
     1
 72
     2
176
     1
 73
     2
176
     1
 90
        0
176
     1
 40
0.6
176
     1
 41
30.0
176
     1
 62
     5
 63
     7
421
 16777215
176
     1
 74
     2
176
     1
 91
        2
176
     1
 64
     7
176
     1
 65
     7
176
     1
 75
     1
176
     1
175
     1
176
     1
 42
40.0
176
     1
 92
       11
176
     1
 66
     7
176
     1
 43
1.0
176
     1
 76
     1
176
     1
 77
     6
176
     1
 78
     2
176
     1
 67
     7
176
     1
 79
     6
176
     1
170
     0
176
     1
171
     0
176
     1
290
     0
176
     1
 93
        1
176
     1
 44
0.0
176
     1
173
     0
176
     1
  0
VISUALSTYLE
  5
36B
102
{ACAD_REACTORS
330
35E
102
}
330
35E
100
AcDbVisualStyle
  2
Thicken
 70
    13
177
     2
291
     1
 71
     2
176
     1
 72
     2
176
     1
 73
     0
176
     1
 90
        0
176
     1
 40
0.6
176
     1
 41
30.0
176
     1
 62
     5
 63
     7
421
 16777215
176
     1
 74
     1
176
     1
 91
        4
176
     1
 64
     7
176
     1
 65
   257
176
     1
 75
     1
176
     1
175
     1
176
     1
 42
1.0
176
     1
 92
       12
176
     1
 66
     7
176
     1
 43
1.0
176
     1
 76
     1
176
     1
 77
     6
176
     1
 78
     2
176
     1
 67
     7
176
     1
 79
     5
176
     1
170
     0
176
     1
171
     0
176
     1
290
     0
176
     1
 93
        1
176
     1
 44
0.0
176
     1
173
     0
176
     1
  0
VISUALSTYLE
  5
364
102
{ACAD_REACTORS
330
35E
102
}
330
35E
100
AcDbVisualStyle
  2
Wireframe
 70
     5
177
     2
291
     0
 71
     0
176
     1
 72
     2
176
     1
 73
     0
176
     1
 90
        0
176
     1
 40
0.6
176
     1
 41
30.0
176
     1
 62
     5
 63
     7
421
 16777215
176
     1
 74
     1
176
     1
 91
        4
176
     1
 64
     7
176
     1
 65
   257
176
     1
 75
     1
176
     1
175
     1
176
     1
 42
1.0
176
     1
 92
        0
176
     1
 66
   257
176
     1
 43
1.0
176
     1
 76
     1
176
     1
 77
     6
176
     1
 78
     2
176
     1
 67
     7
176
     1
 79
     3
176
     1
170
     0
176
     1
171
     0
176
     1
290
     0
176
     1
 93
        1
176
     1
 44
0.0
176
     1
173
     0
176
     1
  0
VISUALSTYLE
  5
374
102
{ACAD_REACTORS
330
35E
102
}
330
35E
100
AcDbVisualStyle
  2
X-Ray
 70
    25
177
     2
291
     0
 71
     2
176
     1
 72
     2
176
     1
 73
     1
176
     1
 90
        1
176
     1
 40
0.5
176
     1
 41
30.0
176
     1
 62
     5
 63
     7
421
 16777215
176
     1
 74
     1
176
     1
 91
        0
176
     1
 64
     7
176
     1
 65
   257
176
     1
 75
     1
176
     1
175
     1
176
     1
 42
1.0
176
     1
 92
        8
176
     1
 66
     7
176
     1
 43
1.0
176
     1
 76
     1
176
     1
 77
     6
176
     1
 78
     2
176
     1
 67
     7
176
     1
 79
     3
176
     1
170
     0
176
     1
171
     0
176
     1
290
     0
176
     1
 93
       13
176
     1
 44
0.0
176
     1
173
     0
176
     1
  0
DICTIONARYVAR
  5
3A3
102
{ACAD_REACTORS
330
5B
102
}
330
5B
100
DictionaryVariables
280
     0
  1
1:1
  0
DICTIONARYVAR
  5
3A5
102
{ACAD_REACTORS
330
5B
102
}
330
5B
100
DictionaryVariables
280
     0
  1
Standard
  0
DICTIONARYVAR
  5
3A4
102
{ACAD_REACTORS
330
5B
102
}
330
5B
100
DictionaryVariables
280
     0
  1
Standard
  0
DICTIONARYVAR
  5
5D
102
{ACAD_REACTORS
330
5B
102
}
330
5B
100
DictionaryVariables
280
     0
  1
2
  0
DICTIONARYVAR
  5
5C
102
{ACAD_REACTORS
330
5B
102
}
330
5B
100
DictionaryVariables
280
     0
  1
1
  0
DICTIONARYVAR
  5
521
102
{ACAD_REACTORS
330
5B
102
}
330
5B
100
DictionaryVariables
280
     0
  1
RP_Platte
  0
DICTIONARYVAR
  5
3A6
102
{ACAD_REACTORS
330
5B
102
}
330
5B
100
DictionaryVariables
280
     0
  1
0
  0
DICTIONARY
  5
514
102
{ACAD_REACTORS
330
513
102
}
330
513
100
AcDbDictionary
281
     1
  0
DICTIONARY
  5
518
102
{ACAD_REACTORS
330
517
102
}
330
517
100
AcDbDictionary
281
     1
  0
DICTIONARY
  5
520
102
{ACAD_REACTORS
330
51F
102
}
330
51F
100
AcDbDictionary
281
     1
  0
DICTIONARY
  5
51D
102
{ACAD_REACTORS
330
51C
102
}
330
51C
100
AcDbDictionary
281
     1
  0
DICTIONARY
  5
55B
102
{ACAD_REACTORS
330
55A
102
}
330
55A
100
AcDbDictionary
281
     1
  0
DICTIONARY
  5
595
102
{ACAD_REACTORS
330
594
102
}
330
594
100
AcDbDictionary
281
     1
  0
DICTIONARY
  5
5C9
102
{ACAD_REACTORS
330
5C8
102
}
330
5C8
100
AcDbDictionary
281
     1
  0
DICTIONARY
  5
633
102
{ACAD_REACTORS
330
632
102
}
330
632
100
AcDbDictionary
281
     1
  0
DICTIONARY
  5
669
102
{ACAD_REACTORS
330
668
102
}
330
668
100
AcDbDictionary
281
     1
  0
DICTIONARY
  5
69F
102
{ACAD_REACTORS
330
69E
102
}
330
69E
100
AcDbDictionary
281
     1
  0
DICTIONARY
  5
6D5
102
{ACAD_REACTORS
330
6D4
102
}
330
6D4
100
AcDbDictionary
281
     1
  0
DICTIONARY
  5
743
102
{ACAD_REACTORS
330
742
102
}
330
742
100
AcDbDictionary
281
     1
  0
DICTIONARY
  5
7E1
102
{ACAD_REACTORS
330
7E0
102
}
330
7E0
100
AcDbDictionary
281
     1
  0
DICTIONARY
  5
7E5
102
{ACAD_REACTORS
330
7E4
102
}
330
7E4
100
AcDbDictionary
281
     1
  0
DICTIONARY
  5
7EA
330
39E
100
AcDbDictionary
280
     1
281
     1
  3
ACAD_ROUNDTRIP_2008_TABLESTYLE_CELLSTYLEMAP
360
7EB
  0
CELLSTYLEMAP
  5
7EB
102
{ACAD_REACTORS
330
7EA
102
}
330
7EA
100
AcDbCellStyleMap
 90
        3
300
CELLSTYLE
  1
TABLEFORMAT_BEGIN
 90
        5
170
     1
 91
        0
 92
    32768
 62
   257
 93
        1
300
CONTENTFORMAT
  1
CONTENTFORMAT_BEGIN
 90
        0
 91
        0
 92
        4
 93
        0
300

 40
0.0
140
1.0
 94
        5
 62
     0
340
11
144
6.0
309
CONTENTFORMAT_END
171
     1
301
MARGIN
  1
CELLMARGIN_BEGIN
 40
1.5
 40
1.5
 40
1.5
 40
1.5
 40
1.5
 40
1.5
309
CELLMARGIN_END
 94
        6
 95
        1
302
GRIDFORMAT
  1
GRIDFORMAT_BEGIN
 90
        0
 91
        1
 62
     0
 92
       -2
340
14
 93
        0
 40
0.045
309
GRIDFORMAT_END
 95
        2
302
GRIDFORMAT
  1
GRIDFORMAT_BEGIN
 90
        0
 91
        1
 62
     0
 92
       -2
340
14
 93
        0
 40
0.045
309
GRIDFORMAT_END
 95
        4
302
GRIDFORMAT
  1
GRIDFORMAT_BEGIN
 90
        0
 91
        1
 62
     0
 92
       -2
340
14
 93
        0
 40
0.045
309
GRIDFORMAT_END
 95
        8
302
GRIDFORMAT
  1
GRIDFORMAT_BEGIN
 90
        0
 91
        1
 62
     0
 92
       -2
340
14
 93
        0
 40
0.045
309
GRIDFORMAT_END
 95
       16
302
GRIDFORMAT
  1
GRIDFORMAT_BEGIN
 90
        0
 91
        1
 62
     0
 92
       -2
340
14
 93
        0
 40
0.045
309
GRIDFORMAT_END
 95
       32
302
GRIDFORMAT
  1
GRIDFORMAT_BEGIN
 90
        0
 91
        1
 62
     0
 92
       -2
340
14
 93
        0
 40
0.045
309
GRIDFORMAT_END
309
TABLEFORMAT_END
  1
CELLSTYLE_BEGIN
 90
        1
 91
        1
300
_TITLE
309
CELLSTYLE_END
300
CELLSTYLE
  1
TABLEFORMAT_BEGIN
 90
        5
170
     1
 91
        0
 92
        0
 62
   257
 93
        1
300
CONTENTFORMAT
  1
CONTENTFORMAT_BEGIN
 90
        0
 91
        0
 92
        4
 93
        0
300

 40
0.0
140
1.0
 94
        5
 62
     0
340
11
144
4.5
309
CONTENTFORMAT_END
171
     1
301
MARGIN
  1
CELLMARGIN_BEGIN
 40
1.5
 40
1.5
 40
1.5
 40
1.5
 40
1.5
 40
1.5
309
CELLMARGIN_END
 94
        6
 95
        1
302
GRIDFORMAT
  1
GRIDFORMAT_BEGIN
 90
        0
 91
        1
 62
     0
 92
       -2
340
14
 93
        0
 40
0.045
309
GRIDFORMAT_END
 95
        2
302
GRIDFORMAT
  1
GRIDFORMAT_BEGIN
 90
        0
 91
        1
 62
     0
 92
       -2
340
14
 93
        0
 40
0.045
309
GRIDFORMAT_END
 95
        4
302
GRIDFORMAT
  1
GRIDFORMAT_BEGIN
 90
        0
 91
        1
 62
     0
 92
       -2
340
14
 93
        0
 40
0.045
309
GRIDFORMAT_END
 95
        8
302
GRIDFORMAT
  1
GRIDFORMAT_BEGIN
 90
        0
 91
        1
 62
     0
 92
       -2
340
14
 93
        0
 40
0.045
309
GRIDFORMAT_END
 95
       16
302
GRIDFORMAT
  1
GRIDFORMAT_BEGIN
 90
        0
 91
        1
 62
     0
 92
       -2
340
14
 93
        0
 40
0.045
309
GRIDFORMAT_END
 95
       32
302
GRIDFORMAT
  1
GRIDFORMAT_BEGIN
 90
        0
 91
        1
 62
     0
 92
       -2
340
14
 93
        0
 40
0.045
309
GRIDFORMAT_END
309
TABLEFORMAT_END
  1
CELLSTYLE_BEGIN
 90
        2
 91
        1
300
_HEADER
309
CELLSTYLE_END
300
CELLSTYLE
  1
TABLEFORMAT_BEGIN
 90
        5
170
     1
 91
        0
 92
        0
 62
   257
 93
        1
300
CONTENTFORMAT
  1
CONTENTFORMAT_BEGIN
 90
        0
 91
        0
 92
        4
 93
        0
300

 40
0.0
140
1.0
 94
        2
 62
     0
340
11
144
4.5
309
CONTENTFORMAT_END
171
     1
301
MARGIN
  1
CELLMARGIN_BEGIN
 40
1.5
 40
1.5
 40
1.5
 40
1.5
 40
1.5
 40
1.5
309
CELLMARGIN_END
 94
        6
 95
        1
302
GRIDFORMAT
  1
GRIDFORMAT_BEGIN
 90
        0
 91
        1
 62
     0
 92
       -2
340
14
 93
        0
 40
0.045
309
GRIDFORMAT_END
 95
        2
302
GRIDFORMAT
  1
GRIDFORMAT_BEGIN
 90
        0
 91
        1
 62
     0
 92
       -2
340
14
 93
        0
 40
0.045
309
GRIDFORMAT_END
 95
        4
302
GRIDFORMAT
  1
GRIDFORMAT_BEGIN
 90
        0
 91
        1
 62
     0
 92
       -2
340
14
 93
        0
 40
0.045
309
GRIDFORMAT_END
 95
        8
302
GRIDFORMAT
  1
GRIDFORMAT_BEGIN
 90
        0
 91
        1
 62
     0
 92
       -2
340
14
 93
        0
 40
0.045
309
GRIDFORMAT_END
 95
       16
302
GRIDFORMAT
  1
GRIDFORMAT_BEGIN
 90
        0
 91
        1
 62
     0
 92
       -2
340
14
 93
        0
 40
0.045
309
GRIDFORMAT_END
 95
       32
302
GRIDFORMAT
  1
GRIDFORMAT_BEGIN
 90
        0
 91
        1
 62
     0
 92
       -2
340
14
 93
        0
 40
0.045
309
GRIDFORMAT_END
309
TABLEFORMAT_END
  1
CELLSTYLE_BEGIN
 90
        3
 91
        2
300
_DATA
309
CELLSTYLE_END
  0
ENDSEC
  0
EOF
