  0
SECTION
  2
HEADER
  9
$ACADVER
  1
AC1024
  9
$ACADMAINTVER
 70
     6
  9
$DWGCODEPAGE
  3
ANSI_1252
  9
$LASTSAVEDBY
  1
marvn
  9
$INSBASE
 10
0.0
 20
0.0
 30
0.0
  9
$EXTMIN
 10
1343.050721617349
 20
629.1027674074076
 30
0.0
  9
$EXTMAX
 10
1855.281468661548
 20
1127.102767407408
 30
0.0
  9
$LIMMIN
 10
0.0
 20
0.0
  9
$LIMMAX
 10
420.0
 20
297.0
  9
$ORTHOMODE
 70
     0
  9
$REGENMODE
 70
     1
  9
$FILLMODE
 70
     1
  9
$QTEXTMODE
 70
     0
  9
$MIRRTEXT
 70
     1
  9
$LTSCALE
 40
1.0
  9
$ATTMODE
 70
     1
  9
$TEXTSIZE
 40
2.5
  9
$TRACEWID
 40
1.0
  9
$TEXTSTYLE
  7
Standard
  9
$CLAYER
  8
RP_Hilfslinie
  9
$CELTYPE
  6
ByLayer
  9
$CECOLOR
 62
   256
  9
$CELTSCALE
 40
1.0
  9
$DISPSILH
 70
     0
  9
$DIMSCALE
 40
1.0
  9
$DIMASZ
 40
2.5
  9
$DIMEXO
 40
0.625
  9
$DIMDLI
 40
3.75
  9
$DIMRND
 40
0.0
  9
$DIMDLE
 40
0.0
  9
$DIMEXE
 40
1.25
  9
$DIMTP
 40
0.0
  9
$DIMTM
 40
0.0
  9
$DIMTXT
 40
2.5
  9
$DIMCEN
 40
2.5
  9
$DIMTSZ
 40
0.0
  9
$DIMTOL
 70
     0
  9
$DIMLIM
 70
     0
  9
$DIMTIH
 70
     0
  9
$DIMTOH
 70
     0
  9
$DIMSE1
 70
     0
  9
$DIMSE2
 70
     0
  9
$DIMTAD
 70
     1
  9
$DIMZIN
 70
     8
  9
$DIMBLK
  1

  9
$DIMASO
 70
     1
  9
$DIMSHO
 70
     1
  9
$DIMPOST
  1

  9
$DIMAPOST
  1

  9
$DIMALT
 70
     0
  9
$DIMALTD
 70
     3
  9
$DIMALTF
 40
0.03937007874016
  9
$DIMLFAC
 40
1.0
  9
$DIMTOFL
 70
     1
  9
$DIMTVP
 40
0.0
  9
$DIMTIX
 70
     0
  9
$DIMSOXD
 70
     0
  9
$DIMSAH
 70
     0
  9
$DIMBLK1
  1

  9
$DIMBLK2
  1

  9
$DIMSTYLE
  2
ISO-25
  9
$DIMCLRD
 70
     0
  9
$DIMCLRE
 70
     0
  9
$DIMCLRT
 70
     0
  9
$DIMTFAC
 40
1.0
  9
$DIMGAP
 40
0.625
  9
$DIMJUST
 70
     0
  9
$DIMSD1
 70
     0
  9
$DIMSD2
 70
     0
  9
$DIMTOLJ
 70
     0
  9
$DIMTZIN
 70
     8
  9
$DIMALTZ
 70
     0
  9
$DIMALTTZ
 70
     0
  9
$DIMUPT
 70
     0
  9
$DIMDEC
 70
     2
  9
$DIMTDEC
 70
     2
  9
$DIMALTU
 70
     2
  9
$DIMALTTD
 70
     3
  9
$DIMTXSTY
  7
Standard
  9
$DIMAUNIT
 70
     0
  9
$DIMADEC
 70
     0
  9
$DIMALTRND
 40
0.0
  9
$DIMAZIN
 70
     0
  9
$DIMDSEP
 70
    44
  9
$DIMATFIT
 70
     3
  9
$DIMFRAC
 70
     0
  9
$DIMLDRBLK
  1

  9
$DIMLUNIT
 70
     2
  9
$DIMLWD
 70
    -2
  9
$DIMLWE
 70
    -2
  9
$DIMTMOVE
 70
     0
  9
$DIMFXL
 40
1.0
  9
$DIMFXLON
 70
     0
  9
$DIMJOGANG
 40
0.7853981633974483
  9
$DIMTFILL
 70
     0
  9
$DIMTFILLCLR
 70
     0
  9
$DIMARCSYM
 70
     0
  9
$DIMLTYPE
  6

  9
$DIMLTEX1
  6

  9
$DIMLTEX2
  6

  9
$DIMTXTDIRECTION
 70
     0
  9
$LUNITS
 70
     2
  9
$LUPREC
 70
     4
  9
$SKETCHINC
 40
1.0
  9
$FILLETRAD
 40
10.0
  9
$AUNITS
 70
     0
  9
$AUPREC
 70
     0
  9
$MENU
  1
.
  9
$ELEVATION
 40
0.0
  9
$PELEVATION
 40
0.0
  9
$THICKNESS
 40
0.0
  9
$LIMCHECK
 70
     0
  9
$CHAMFERA
 40
10.0
  9
$CHAMFERB
 40
10.0
  9
$CHAMFERC
 40
20.0
  9
$CHAMFERD
 40
0.0
  9
$SKPOLY
 70
     0
  9
$TDCREATE
 40
2453866.437617407
  9
$TDUCREATE
 40
2453866.395950741
  9
$TDUPDATE
 40
2457837.562327141
  9
$TDUUPDATE
 40
2457837.520660474
  9
$TDINDWG
 40
0.0964576736
  9
$TDUSRTIMER
 40
2457837.519158461
  9
$USRTIMER
 70
     1
  9
$ANGBASE
 50
0.0
  9
$ANGDIR
 70
     0
  9
$PDMODE
 70
     0
  9
$PDSIZE
 40
0.0
  9
$PLINEWID
 40
0.0
  9
$SPLFRAME
 70
     0
  9
$SPLINETYPE
 70
     6
  9
$SPLINESEGS
 70
     8
  9
$HANDSEED
  5
AEB
  9
$SURFTAB1
 70
     6
  9
$SURFTAB2
 70
     6
  9
$SURFTYPE
 70
     6
  9
$SURFU
 70
     6
  9
$SURFV
 70
     6
  9
$UCSBASE
  2

  9
$UCSNAME
  2

  9
$UCSORG
 10
0.0
 20
0.0
 30
0.0
  9
$UCSXDIR
 10
1.0
 20
0.0
 30
0.0
  9
$UCSYDIR
 10
0.0
 20
1.0
 30
0.0
  9
$UCSORTHOREF
  2

  9
$UCSORTHOVIEW
 70
     0
  9
$UCSORGTOP
 10
0.0
 20
0.0
 30
0.0
  9
$UCSORGBOTTOM
 10
0.0
 20
0.0
 30
0.0
  9
$UCSORGLEFT
 10
0.0
 20
0.0
 30
0.0
  9
$UCSORGRIGHT
 10
0.0
 20
0.0
 30
0.0
  9
$UCSORGFRONT
 10
0.0
 20
0.0
 30
0.0
  9
$UCSORGBACK
 10
0.0
 20
0.0
 30
0.0
  9
$PUCSBASE
  2

  9
$PUCSNAME
  2

  9
$PUCSORG
 10
0.0
 20
0.0
 30
0.0
  9
$PUCSXDIR
 10
1.0
 20
0.0
 30
0.0
  9
$PUCSYDIR
 10
0.0
 20
1.0
 30
0.0
  9
$PUCSORTHOREF
  2

  9
$PUCSORTHOVIEW
 70
     0
  9
$PUCSORGTOP
 10
0.0
 20
0.0
 30
0.0
  9
$PUCSORGBOTTOM
 10
0.0
 20
0.0
 30
0.0
  9
$PUCSORGLEFT
 10
0.0
 20
0.0
 30
0.0
  9
$PUCSORGRIGHT
 10
0.0
 20
0.0
 30
0.0
  9
$PUCSORGFRONT
 10
0.0
 20
0.0
 30
0.0
  9
$PUCSORGBACK
 10
0.0
 20
0.0
 30
0.0
  9
$USERI1
 70
     0
  9
$USERI2
 70
     0
  9
$USERI3
 70
     0
  9
$USERI4
 70
     0
  9
$USERI5
 70
     0
  9
$USERR1
 40
0.0
  9
$USERR2
 40
0.0
  9
$USERR3
 40
0.0
  9
$USERR4
 40
0.0
  9
$USERR5
 40
0.0
  9
$WORLDVIEW
 70
     1
  9
$SHADEDGE
 70
     3
  9
$SHADEDIF
 70
    70
  9
$TILEMODE
 70
     0
  9
$MAXACTVP
 70
    64
  9
$PINSBASE
 10
0.0
 20
0.0
 30
0.0
  9
$PLIMCHECK
 70
     0
  9
$PEXTMIN
 10
232.9534537159595
 20
-0.000000053342319
 30
0.0
  9
$PEXTMAX
 10
442.9534537159595
 20
296.9999999466577
 30
0.0
  9
$PLIMMIN
 10
232.9384852524412
 20
-0.0423394215799208
  9
$PLIMMAX
 10
442.9684221794778
 20
296.9999999466576
  9
$UNITMODE
 70
     0
  9
$VISRETAIN
 70
     1
  9
$PLINEGEN
 70
     0
  9
$PSLTSCALE
 70
     1
  9
$TREEDEPTH
 70
  3020
  9
$CMLSTYLE
  2
Standard
  9
$CMLJUST
 70
     0
  9
$CMLSCALE
 40
20.0
  9
$PROXYGRAPHICS
 70
     1
  9
$MEASUREMENT
 70
     1
  9
$CELWEIGHT
370
    -1
  9
$ENDCAPS
280
     0
  9
$JOINSTYLE
280
     0
  9
$LWDISPLAY
290
     0
  9
$INSUNITS
 70
     4
  9
$HYPERLINKBASE
  1

  9
$STYLESHEET
  1

  9
$XEDIT
290
     1
  9
$CEPSNTYPE
380
     0
  9
$PSTYLEMODE
290
     1
  9
$FINGERPRINTGUID
  2
{361B34AB-7CDE-40BF-AA94-934DB803392F}
  9
$VERSIONGUID
  2
{827B0B29-BAE6-40A6-98F9-8AABB0883CFC}
  9
$EXTNAMES
290
     1
  9
$PSVPSCALE
 40
0.0
  9
$OLESTARTUP
290
     0
  9
$SORTENTS
280
   127
  9
$INDEXCTL
280
     0
  9
$HIDETEXT
280
     1
  9
$XCLIPFRAME
280
     2
  9
$HALOGAP
280
     0
  9
$OBSCOLOR
 70
   257
  9
$OBSLTYPE
280
     0
  9
$INTERSECTIONDISPLAY
280
     0
  9
$INTERSECTIONCOLOR
 70
   257
  9
$DIMASSOC
280
     2
  9
$PROJECTNAME
  1

  9
$CAMERADISPLAY
290
     0
  9
$LENSLENGTH
 40
50.0
  9
$CAMERAHEIGHT
 40
0.0
  9
$STEPSPERSEC
 40
2.0
  9
$STEPSIZE
 40
6.0
  9
$3DDWFPREC
 40
2.0
  9
$PSOLWIDTH
 40
0.25
  9
$PSOLHEIGHT
 40
4.0
  9
$LOFTANG1
 40
1.570796326794897
  9
$LOFTANG2
 40
1.570796326794897
  9
$LOFTMAG1
 40
0.0
  9
$LOFTMAG2
 40
0.0
  9
$LOFTPARAM
 70
     7
  9
$LOFTNORMALS
280
     1
  9
$LATITUDE
 40
37.795
  9
$LONGITUDE
 40
-122.394
  9
$NORTHDIRECTION
 40
0.0
  9
$TIMEZONE
 70
 -8000
  9
$LIGHTGLYPHDISPLAY
280
     1
  9
$TILEMODELIGHTSYNCH
280
     1
  9
$SOLIDHIST
280
     0
  9
$SHOWHIST
280
     1
  9
$DWFFRAME
280
     2
  9
$DGNFRAME
280
     2
  9
$REALWORLDSCALE
290
     1
  9
$INTERFERECOLOR
 62
   256
  9
$CSHADOW
280
     0
  9
$SHADOWPLANELOCATION
 40
0.0
  0
ENDSEC
  0
SECTION
  2
CLASSES
  0
CLASS
  1
ACDBDICTIONARYWDFLT
  2
AcDbDictionaryWithDefault
  3
ObjectDBX Classes
 90
        0
 91
        4
280
     0
281
     0
  0
CLASS
  1
ACDBPLACEHOLDER
  2
AcDbPlaceHolder
  3
ObjectDBX Classes
 90
        0
 91
        1
280
     0
281
     0
  0
CLASS
  1
LAYOUT
  2
AcDbLayout
  3
ObjectDBX Classes
 90
        0
 91
        1
280
     0
281
     0
  0
CLASS
  1
DICTIONARYVAR
  2
AcDbDictionaryVar
  3
ObjectDBX Classes
 90
        0
 91
        4
280
     0
281
     0
  0
CLASS
  1
VISUALSTYLE
  2
AcDbVisualStyle
  3
ObjectDBX Classes
 90
     4095
 91
        4
280
     0
281
     0
  0
CLASS
  1
SCALE
  2
AcDbScale
  3
ObjectDBX Classes
 90
     1153
 91
        4
280
     0
281
     0
  0
CLASS
  1
MATERIAL
  2
AcDbMaterial
  3
ObjectDBX Classes
 90
     1153
 91
        4
280
     0
281
     0
  0
CLASS
  1
TABLESTYLE
  2
AcDbTableStyle
  3
ObjectDBX Classes
 90
     4095
 91
        4
280
     0
281
     0
  0
CLASS
  1
MLEADERSTYLE
  2
AcDbMLeaderStyle
  3
ACDB_MLEADERSTYLE_CLASS
 90
     4095
 91
        4
280
     0
281
     0
  0
CLASS
  1
SUN
  2
AcDbSun
  3
SCENEOE
 90
     1153
 91
        4
280
     0
281
     0
  0
CLASS
  1
IMAGE
  2
AcDbRasterImage
  3
ISM
 90
      127
 91
        5
280
     0
281
     1
  0
CLASS
  1
IMAGEDEF
  2
AcDbRasterImageDef
  3
ISM
 90
        0
 91
        4
280
     0
281
     0
  0
CLASS
  1
IMAGEDEF_REACTOR
  2
AcDbRasterImageDefReactor
  3
ISM
 90
        1
 91
        4
280
     0
281
     0
  0
CLASS
  1
RASTERVARIABLES
  2
AcDbRasterVariables
  3
ISM
 90
        0
 91
        4
280
     0
281
     0
  0
CLASS
  1
SORTENTSTABLE
  2
AcDbSortentsTable
  3
ObjectDBX Classes
 90
        0
 91
        4
280
     0
281
     0
  0
CLASS
  1
CELLSTYLEMAP
  2
AcDbCellStyleMap
  3
ObjectDBX Classes
 90
     1152
 91
        4
280
     0
281
     0
  0
ENDSEC
  0
SECTION
  2
TABLES
  0
TABLE
  2
VPORT
  5
8
330
0
100
AcDbSymbolTable
 70
     2
  0
VPORT
  5
4F6
330
8
100
AcDbSymbolTableRecord
100
AcDbViewportTableRecord
  2
*Active
 70
     0
 10
0.0
 20
0.0
 11
1.0
 21
1.0
 12
1718.630496952636
 22
822.3689354036546
 13
0.0
 23
0.0
 14
10.0
 24
10.0
 15
10.0
 25
10.0
 16
0.0
 26
0.0
 36
1.0
 17
0.0
 27
0.0
 37
0.0
 40
760.32
 41
1.810699588477366
 42
50.0
 43
0.0
 44
0.0
 50
0.0
 51
0.0
 71
    16
 72
   100
 73
     1
 74
     3
 75
     0
 76
     0
 77
     0
 78
     0
281
     0
 65
     1
110
0.0
120
0.0
130
0.0
111
1.0
121
0.0
131
0.0
112
0.0
122
1.0
132
0.0
 79
     0
146
0.0
348
4FC
 60
     3
 61
     5
292
     0
282
     1
141
0.0
142
0.0
 63
   256
361
53B
  0
ENDTAB
  0
TABLE
  2
LTYPE
  5
5
330
0
100
AcDbSymbolTable
 70
    46
  0
LTYPE
  5
14
330
5
100
AcDbSymbolTableRecord
100
AcDbLinetypeTableRecord
  2
ByBlock
 70
     0
  3

 72
    65
 73
     0
 40
0.0
  0
LTYPE
  5
15
330
5
100
AcDbSymbolTableRecord
100
AcDbLinetypeTableRecord
  2
ByLayer
 70
     0
  3

 72
    65
 73
     0
 40
0.0
  0
LTYPE
  5
16
330
5
100
AcDbSymbolTableRecord
100
AcDbLinetypeTableRecord
  2
Continuous
 70
     0
  3
Solid line
 72
    65
 73
     0
 40
0.0
  0
LTYPE
  5
2D
330
5
100
AcDbSymbolTableRecord
100
AcDbLinetypeTableRecord
  2
ACAD_ISO02W100
 70
     0
  3
ISO dash __ __ __ __ __ __ __ __ __ __ __ __ __
 72
    65
 73
     2
 40
15.0
 49
12.0
 74
     0
 49
-3.0
 74
     0
  0
LTYPE
  5
2E
330
5
100
AcDbSymbolTableRecord
100
AcDbLinetypeTableRecord
  2
ACAD_ISO03W100
 70
     0
  3
ISO dash space __    __    __    __    __    __
 72
    65
 73
     2
 40
30.0
 49
12.0
 74
     0
 49
-18.0
 74
     0
  0
LTYPE
  5
2F
330
5
100
AcDbSymbolTableRecord
100
AcDbLinetypeTableRecord
  2
ACAD_ISO04W100
 70
     0
  3
ISO long-dash dot ____ . ____ . ____ . ____ . _
 72
    65
 73
     4
 40
30.0
 49
24.0
 74
     0
 49
-3.0
 74
     0
 49
0.0
 74
     0
 49
-3.0
 74
     0
  0
LTYPE
  5
30
330
5
100
AcDbSymbolTableRecord
100
AcDbLinetypeTableRecord
  2
ACAD_ISO05W100
 70
     0
  3
ISO long-dash double-dot ____ .. ____ .. ____ .
 72
    65
 73
     6
 40
33.0
 49
24.0
 74
     0
 49
-3.0
 74
     0
 49
0.0
 74
     0
 49
-3.0
 74
     0
 49
0.0
 74
     0
 49
-3.0
 74
     0
  0
LTYPE
  5
31
330
5
100
AcDbSymbolTableRecord
100
AcDbLinetypeTableRecord
  2
ACAD_ISO06W100
 70
     0
  3
ISO long-dash triple-dot ____ ... ____ ... ____
 72
    65
 73
     8
 40
36.0
 49
24.0
 74
     0
 49
-3.0
 74
     0
 49
0.0
 74
     0
 49
-3.0
 74
     0
 49
0.0
 74
     0
 49
-3.0
 74
     0
 49
0.0
 74
     0
 49
-3.0
 74
     0
  0
LTYPE
  5
32
330
5
100
AcDbSymbolTableRecord
100
AcDbLinetypeTableRecord
  2
ACAD_ISO07W100
 70
     0
  3
ISO dot . . . . . . . . . . . . . . . . . . . .
 72
    65
 73
     2
 40
3.0
 49
0.0
 74
     0
 49
-3.0
 74
     0
  0
LTYPE
  5
33
330
5
100
AcDbSymbolTableRecord
100
AcDbLinetypeTableRecord
  2
ACAD_ISO08W100
 70
     0
  3
ISO long-dash short-dash ____ __ ____ __ ____ _
 72
    65
 73
     4
 40
36.0
 49
24.0
 74
     0
 49
-3.0
 74
     0
 49
6.0
 74
     0
 49
-3.0
 74
     0
  0
LTYPE
  5
34
330
5
100
AcDbSymbolTableRecord
100
AcDbLinetypeTableRecord
  2
ACAD_ISO09W100
 70
     0
  3
ISO long-dash double-short-dash ____ __ __ ____
 72
    65
 73
     6
 40
45.0
 49
24.0
 74
     0
 49
-3.0
 74
     0
 49
6.0
 74
     0
 49
-3.0
 74
     0
 49
6.0
 74
     0
 49
-3.0
 74
     0
  0
LTYPE
  5
35
330
5
100
AcDbSymbolTableRecord
100
AcDbLinetypeTableRecord
  2
ACAD_ISO10W100
 70
     0
  3
ISO dash dot __ . __ . __ . __ . __ . __ . __ .
 72
    65
 73
     4
 40
18.0
 49
12.0
 74
     0
 49
-3.0
 74
     0
 49
0.0
 74
     0
 49
-3.0
 74
     0
  0
LTYPE
  5
36
330
5
100
AcDbSymbolTableRecord
100
AcDbLinetypeTableRecord
  2
ACAD_ISO11W100
 70
     0
  3
ISO double-dash dot __ __ . __ __ . __ __ . __ 
 72
    65
 73
     6
 40
33.0
 49
12.0
 74
     0
 49
-3.0
 74
     0
 49
12.0
 74
     0
 49
-3.0
 74
     0
 49
0.0
 74
     0
 49
-3.0
 74
     0
  0
LTYPE
  5
37
330
5
100
AcDbSymbolTableRecord
100
AcDbLinetypeTableRecord
  2
ACAD_ISO12W100
 70
     0
  3
ISO dash double-dot __ . . __ . . __ . . __ . .
 72
    65
 73
     6
 40
21.0
 49
12.0
 74
     0
 49
-3.0
 74
     0
 49
0.0
 74
     0
 49
-3.0
 74
     0
 49
0.0
 74
     0
 49
-3.0
 74
     0
  0
LTYPE
  5
38
330
5
100
AcDbSymbolTableRecord
100
AcDbLinetypeTableRecord
  2
ACAD_ISO13W100
 70
     0
  3
ISO double-dash double-dot __ __ . . __ __ . . 
 72
    65
 73
     8
 40
36.0
 49
12.0
 74
     0
 49
-3.0
 74
     0
 49
12.0
 74
     0
 49
-3.0
 74
     0
 49
0.0
 74
     0
 49
-3.0
 74
     0
 49
0.0
 74
     0
 49
-3.0
 74
     0
  0
LTYPE
  5
39
330
5
100
AcDbSymbolTableRecord
100
AcDbLinetypeTableRecord
  2
ACAD_ISO14W100
 70
     0
  3
ISO dash triple-dot __ . . . __ . . . __ . . . 
 72
    65
 73
     8
 40
24.0
 49
12.0
 74
     0
 49
-3.0
 74
     0
 49
0.0
 74
     0
 49
-3.0
 74
     0
 49
0.0
 74
     0
 49
-3.0
 74
     0
 49
0.0
 74
     0
 49
-3.0
 74
     0
  0
LTYPE
  5
3A
330
5
100
AcDbSymbolTableRecord
100
AcDbLinetypeTableRecord
  2
ACAD_ISO15W100
 70
     0
  3
ISO double-dash triple-dot __ __ . . . __ __ . 
 72
    65
 73
    10
 40
39.0
 49
12.0
 74
     0
 49
-3.0
 74
     0
 49
12.0
 74
     0
 49
-3.0
 74
     0
 49
0.0
 74
     0
 49
-3.0
 74
     0
 49
0.0
 74
     0
 49
-3.0
 74
     0
 49
0.0
 74
     0
 49
-3.0
 74
     0
  0
LTYPE
  5
3B
330
5
100
AcDbSymbolTableRecord
100
AcDbLinetypeTableRecord
  2
BATTING
 70
     0
  3
Batting SSSSSSSSSSSSSSSSSSSSSSSSSSSSSSSSSSSSSSS
 72
    65
 73
     4
 40
10.16254
 49
0.00254
 74
     0
 49
-2.54
 74
     4
 75
   134
340
2C
 46
2.54
 50
0.0
 44
-2.54
 45
0.0
 49
-5.08
 74
     4
 75
   134
340
2C
 46
2.54
 50
180.0
 44
2.54
 45
0.0
 49
-2.54
 74
     0
  0
LTYPE
  5
3C
330
5
100
AcDbSymbolTableRecord
100
AcDbLinetypeTableRecord
  2
BORDER
 70
     0
  3
Border __ __ . __ __ . __ __ . __ __ . __ __ .
 72
    65
 73
     6
 40
44.45
 49
12.7
 74
     0
 49
-6.35
 74
     0
 49
12.7
 74
     0
 49
-6.35
 74
     0
 49
0.0
 74
     0
 49
-6.35
 74
     0
  0
LTYPE
  5
3D
330
5
100
AcDbSymbolTableRecord
100
AcDbLinetypeTableRecord
  2
BORDER2
 70
     0
  3
Border (.5x) __.__.__.__.__.__.__.__.__.__.__.
 72
    65
 73
     6
 40
22.225
 49
6.35
 74
     0
 49
-3.175
 74
     0
 49
6.35
 74
     0
 49
-3.175
 74
     0
 49
0.0
 74
     0
 49
-3.175
 74
     0
  0
LTYPE
  5
3E
330
5
100
AcDbSymbolTableRecord
100
AcDbLinetypeTableRecord
  2
BORDERX2
 70
     0
  3
Border (2x) ____  ____  .  ____  ____  .  ___
 72
    65
 73
     6
 40
88.9
 49
25.4
 74
     0
 49
-12.7
 74
     0
 49
25.4
 74
     0
 49
-12.7
 74
     0
 49
0.0
 74
     0
 49
-12.7
 74
     0
  0
LTYPE
  5
3F
330
5
100
AcDbSymbolTableRecord
100
AcDbLinetypeTableRecord
  2
CENTER
 70
     0
  3
Center ____ _ ____ _ ____ _ ____ _ ____ _ ____
 72
    65
 73
     4
 40
50.8
 49
31.75
 74
     0
 49
-6.35
 74
     0
 49
6.35
 74
     0
 49
-6.35
 74
     0
  0
LTYPE
  5
40
330
5
100
AcDbSymbolTableRecord
100
AcDbLinetypeTableRecord
  2
CENTER2
 70
     0
  3
Center (.5x) ___ _ ___ _ ___ _ ___ _ ___ _ ___
 72
    65
 73
     4
 40
28.575
 49
19.05
 74
     0
 49
-3.175
 74
     0
 49
3.175
 74
     0
 49
-3.175
 74
     0
  0
LTYPE
  5
41
330
5
100
AcDbSymbolTableRecord
100
AcDbLinetypeTableRecord
  2
CENTERX2
 70
     0
  3
Center (2x) ________  __  ________  __  _____
 72
    65
 73
     4
 40
101.6
 49
63.5
 74
     0
 49
-12.7
 74
     0
 49
12.7
 74
     0
 49
-12.7
 74
     0
  0
LTYPE
  5
42
330
5
100
AcDbSymbolTableRecord
100
AcDbLinetypeTableRecord
  2
DASHDOT
 70
     0
  3
Dash dot __ . __ . __ . __ . __ . __ . __ . __
 72
    65
 73
     4
 40
25.4
 49
12.7
 74
     0
 49
-6.35
 74
     0
 49
0.0
 74
     0
 49
-6.35
 74
     0
  0
LTYPE
  5
43
330
5
100
AcDbSymbolTableRecord
100
AcDbLinetypeTableRecord
  2
DASHDOT2
 70
     0
  3
Dash dot (.5x) _._._._._._._._._._._._._._._.
 72
    65
 73
     4
 40
12.7
 49
6.35
 74
     0
 49
-3.175
 74
     0
 49
0.0
 74
     0
 49
-3.175
 74
     0
  0
LTYPE
  5
44
330
5
100
AcDbSymbolTableRecord
100
AcDbLinetypeTableRecord
  2
DASHDOTX2
 70
     0
  3
Dash dot (2x) ____  .  ____  .  ____  .  ___
 72
    65
 73
     4
 40
50.8
 49
25.4
 74
     0
 49
-12.7
 74
     0
 49
0.0
 74
     0
 49
-12.7
 74
     0
  0
LTYPE
  5
45
330
5
100
AcDbSymbolTableRecord
100
AcDbLinetypeTableRecord
  2
DASHED
 70
     0
  3
Dashed __ __ __ __ __ __ __ __ __ __ __ __ __ _
 72
    65
 73
     2
 40
19.05
 49
12.7
 74
     0
 49
-6.35
 74
     0
  0
LTYPE
  5
46
330
5
100
AcDbSymbolTableRecord
100
AcDbLinetypeTableRecord
  2
DASHED2
 70
     0
  3
Dashed (.5x) _ _ _ _ _ _ _ _ _ _ _ _ _ _ _ _ _
 72
    65
 73
     2
 40
9.524999999999999
 49
6.35
 74
     0
 49
-3.175
 74
     0
  0
LTYPE
  5
47
330
5
100
AcDbSymbolTableRecord
100
AcDbLinetypeTableRecord
  2
DASHEDX2
 70
     0
  3
Dashed (2x) ____  ____  ____  ____  ____  ___
 72
    65
 73
     2
 40
38.09999999999999
 49
25.4
 74
     0
 49
-12.7
 74
     0
  0
LTYPE
  5
48
330
5
100
AcDbSymbolTableRecord
100
AcDbLinetypeTableRecord
  2
DIVIDE
 70
     0
  3
Divide ____ . . ____ . . ____ . . ____ . . ____
 72
    65
 73
     6
 40
31.75
 49
12.7
 74
     0
 49
-6.35
 74
     0
 49
0.0
 74
     0
 49
-6.35
 74
     0
 49
0.0
 74
     0
 49
-6.35
 74
     0
  0
LTYPE
  5
49
330
5
100
AcDbSymbolTableRecord
100
AcDbLinetypeTableRecord
  2
DIVIDE2
 70
     0
  3
Divide (.5x) __..__..__..__..__..__..__..__.._
 72
    65
 73
     6
 40
15.875
 49
6.35
 74
     0
 49
-3.175
 74
     0
 49
0.0
 74
     0
 49
-3.175
 74
     0
 49
0.0
 74
     0
 49
-3.175
 74
     0
  0
LTYPE
  5
4A
330
5
100
AcDbSymbolTableRecord
100
AcDbLinetypeTableRecord
  2
DIVIDEX2
 70
     0
  3
Divide (2x) ________  .  .  ________  .  .  _
 72
    65
 73
     6
 40
63.49999999999999
 49
25.4
 74
     0
 49
-12.7
 74
     0
 49
0.0
 74
     0
 49
-12.7
 74
     0
 49
0.0
 74
     0
 49
-12.7
 74
     0
  0
LTYPE
  5
4B
330
5
100
AcDbSymbolTableRecord
100
AcDbLinetypeTableRecord
  2
DOT
 70
     0
  3
Dot . . . . . . . . . . . . . . . . . . . . . .
 72
    65
 73
     2
 40
6.35
 49
0.0
 74
     0
 49
-6.35
 74
     0
  0
LTYPE
  5
4C
330
5
100
AcDbSymbolTableRecord
100
AcDbLinetypeTableRecord
  2
DOT2
 70
     0
  3
Dot (.5x) .....................................
 72
    65
 73
     2
 40
3.175
 49
0.0
 74
     0
 49
-3.175
 74
     0
  0
LTYPE
  5
4D
330
5
100
AcDbSymbolTableRecord
100
AcDbLinetypeTableRecord
  2
DOTX2
 70
     0
  3
Dot (2x) .  .  .  .  .  .  .  .  .  .  .  .  . 
 72
    65
 73
     2
 40
12.7
 49
0.0
 74
     0
 49
-12.7
 74
     0
  0
LTYPE
  5
4E
330
5
100
AcDbSymbolTableRecord
100
AcDbLinetypeTableRecord
  2
FENCELINE1
 70
     0
  3
Fenceline circle ----0-----0----0-----0----0---
 72
    65
 73
     4
 40
36.83
 49
6.35
 74
     0
 49
-2.54
 74
     4
 75
   133
340
2C
 46
2.54
 50
0.0
 44
-2.54
 45
0.0
 49
-2.54
 74
     0
 49
25.4
 74
     0
  0
LTYPE
  5
4F
330
5
100
AcDbSymbolTableRecord
100
AcDbLinetypeTableRecord
  2
FENCELINE2
 70
     0
  3
Fenceline square ----[]-----[]----[]-----[]----
 72
    65
 73
     4
 40
36.83
 49
6.35
 74
     0
 49
-2.54
 74
     4
 75
   132
340
2C
 46
2.54
 50
0.0
 44
-2.54
 45
0.0
 49
-2.54
 74
     0
 49
25.4
 74
     0
  0
LTYPE
  5
50
330
5
100
AcDbSymbolTableRecord
100
AcDbLinetypeTableRecord
  2
GAS_LINE
 70
     0
  3
Gas line ----GAS----GAS----GAS----GAS----GAS---
 72
    65
 73
     3
 40
24.13
 49
12.7
 74
     0
 49
-5.08
 74
     2
 75
     0
340
11
 46
2.54
 50
0.0
 44
-2.54
 45
-1.27
  9
GAS
 49
-6.35
 74
     0
  0
LTYPE
  5
51
330
5
100
AcDbSymbolTableRecord
100
AcDbLinetypeTableRecord
  2
HIDDEN
 70
     0
  3
Hidden __ __ __ __ __ __ __ __ __ __ __ __ __ _
 72
    65
 73
     2
 40
9.524999999999999
 49
6.35
 74
     0
 49
-3.175
 74
     0
  0
LTYPE
  5
52
330
5
100
AcDbSymbolTableRecord
100
AcDbLinetypeTableRecord
  2
HIDDEN2
 70
     0
  3
Hidden (.5x) _ _ _ _ _ _ _ _ _ _ _ _ _ _ _ _ _
 72
    65
 73
     2
 40
4.762499999999999
 49
3.175
 74
     0
 49
-1.5875
 74
     0
  0
LTYPE
  5
53
330
5
100
AcDbSymbolTableRecord
100
AcDbLinetypeTableRecord
  2
HIDDENX2
 70
     0
  3
Hidden (2x) ____ ____ ____ ____ ____ ____ ____
 72
    65
 73
     2
 40
19.05
 49
12.7
 74
     0
 49
-6.35
 74
     0
  0
LTYPE
  5
54
330
5
100
AcDbSymbolTableRecord
100
AcDbLinetypeTableRecord
  2
HOT_WATER_SUPPLY
 70
     0
  3
Hot water supply ---- HW ---- HW ---- HW ----
 72
    65
 73
     3
 40
22.86
 49
12.7
 74
     0
 49
-5.08
 74
     2
 75
     0
340
11
 46
2.54
 50
0.0
 44
-2.54
 45
-1.27
  9
HW
 49
-5.08
 74
     0
  0
LTYPE
  5
55
330
5
100
AcDbSymbolTableRecord
100
AcDbLinetypeTableRecord
  2
PHANTOM
 70
     0
  3
Phantom ______  __  __  ______  __  __  ______
 72
    65
 73
     6
 40
63.5
 49
31.75
 74
     0
 49
-6.35
 74
     0
 49
6.35
 74
     0
 49
-6.35
 74
     0
 49
6.35
 74
     0
 49
-6.35
 74
     0
  0
LTYPE
  5
56
330
5
100
AcDbSymbolTableRecord
100
AcDbLinetypeTableRecord
  2
PHANTOM2
 70
     0
  3
Phantom (.5x) ___ _ _ ___ _ _ ___ _ _ ___ _ _
 72
    65
 73
     6
 40
31.75
 49
15.875
 74
     0
 49
-3.175
 74
     0
 49
3.175
 74
     0
 49
-3.175
 74
     0
 49
3.175
 74
     0
 49
-3.175
 74
     0
  0
LTYPE
  5
57
330
5
100
AcDbSymbolTableRecord
100
AcDbLinetypeTableRecord
  2
PHANTOMX2
 70
     0
  3
Phantom (2x) ____________    ____    ____   _
 72
    65
 73
     6
 40
127.0
 49
63.5
 74
     0
 49
-12.7
 74
     0
 49
12.7
 74
     0
 49
-12.7
 74
     0
 49
12.7
 74
     0
 49
-12.7
 74
     0
  0
LTYPE
  5
58
330
5
100
AcDbSymbolTableRecord
100
AcDbLinetypeTableRecord
  2
TRACKS
 70
     0
  3
Tracks -|-|-|-|-|-|-|-|-|-|-|-|-|-|-|-|-|-|-|-|
 72
    65
 73
     2
 40
7.62
 49
3.81
 74
     4
 75
   130
340
2C
 46
6.35
 50
0.0
 44
0.0
 45
0.0
 49
3.81
 74
     0
  0
LTYPE
  5
59
330
5
100
AcDbSymbolTableRecord
100
AcDbLinetypeTableRecord
  2
ZIGZAG
 70
     0
  3
Zig zag /\/\/\/\/\/\/\/\/\/\/\/\/\/\/\/\/\/\/\/
 72
    65
 73
     4
 40
20.32254
 49
0.00254
 74
     0
 49
-5.08
 74
     4
 75
   131
340
2C
 46
5.08
 50
0.0
 44
-5.08
 45
0.0
 49
-10.16
 74
     4
 75
   131
340
2C
 46
5.08
 50
180.0
 44
5.08
 45
0.0
 49
-5.08
 74
     0
  0
ENDTAB
  0
TABLE
  2
LAYER
  5
2
102
{ACAD_XDICTIONARY
360
6C1
102
}
330
0
100
AcDbSymbolTable
 70
    22
  0
LAYER
  5
10
330
2
100
AcDbSymbolTableRecord
100
AcDbLayerTableRecord
  2
0
 70
     0
 62
     7
  6
Continuous
370
    -3
390
F
347
535
  0
LAYER
  5
80
330
2
100
AcDbSymbolTableRecord
100
AcDbLayerTableRecord
  2
A--L1---
 70
     0
 62
     7
  6
Continuous
370
    -3
390
F
347
535
  0
LAYER
  5
113
330
2
100
AcDbSymbolTableRecord
100
AcDbLayerTableRecord
  2
A--T108-
 70
     0
 62
     7
  6
Continuous
370
    -3
390
F
347
535
  0
LAYER
  5
211
330
2
100
AcDbSymbolTableRecord
100
AcDbLayerTableRecord
  2
A--L107-
 70
     0
 62
     7
  6
Continuous
370
    -3
390
F
347
535
  0
LAYER
  5
214
330
2
100
AcDbSymbolTableRecord
100
AcDbLayerTableRecord
  2
A--T1---
 70
     0
 62
     7
  6
Continuous
370
    -3
390
F
347
535
  0
LAYER
  5
217
330
2
100
AcDbSymbolTableRecord
100
AcDbLayerTableRecord
  2
A--L98--
 70
     0
 62
     7
  6
Continuous
370
    -3
390
F
347
535
  0
LAYER
  5
5C1
330
2
100
AcDbSymbolTableRecord
100
AcDbLayerTableRecord
  2
Defpoints
 70
     0
 62
     7
  6
Continuous
290
     0
370
    -3
390
F
347
535
  0
LAYER
  5
5D0
330
2
100
AcDbSymbolTableRecord
100
AcDbLayerTableRecord
  2
GIP-Planrahmen
 70
     0
 62
     7
  6
Continuous
370
    -3
390
F
347
535
1001
AcAecLayerStandard
1000

1000

  0
LAYER
  5
5D9
330
2
100
AcDbSymbolTableRecord
100
AcDbLayerTableRecord
  2
GIP-Ansichtsfenster
 70
     0
 62
   253
  6
Continuous
290
     0
370
    35
390
F
347
535
1001
AcAecLayerStandard
1000

1000

1001
AcCmTransparency
1071
        0
  0
LAYER
  5
5E3
330
2
100
AcDbSymbolTableRecord
100
AcDbLayerTableRecord
  2
RP_Beschriftung
 70
     0
 62
     7
  6
Continuous
370
    15
390
F
347
535
1001
AcAecLayerStandard
1000

1000

1001
AcCmTransparency
1071
        0
  0
LAYER
  5
5F1
330
2
100
AcDbSymbolTableRecord
100
AcDbLayerTableRecord
  2
RP_breathable membrane
 70
     0
 62
     7
  6
DASHED2
370
    25
390
F
347
535
1001
AcAecLayerStandard
1000

1000

1001
AcCmTransparency
1071
        0
  0
LAYER
  5
5F6
330
2
100
AcDbSymbolTableRecord
100
AcDbLayerTableRecord
  2
RP_Concrete
 70
     0
 62
   251
  6
Continuous
370
    15
390
F
347
535
1001
AcAecLayerStandard
1000

1000

1001
AcCmTransparency
1071
        0
  0
LAYER
  5
5FA
330
2
100
AcDbSymbolTableRecord
100
AcDbLayerTableRecord
  2
RP_EPDM
 70
     0
 62
   250
  6
Continuous
370
    15
390
F
347
535
1001
AcAecLayerStandard
1000

1000

1001
AcCmTransparency
1071
        0
  0
LAYER
  5
5FE
330
2
100
AcDbSymbolTableRecord
100
AcDbLayerTableRecord
  2
RP_Hilfslinie
 70
     0
 62
    32
  6
DASHED2
370
    15
390
F
347
535
1001
AcAecLayerStandard
1000

1000

1001
AcCmTransparency
1071
        0
  0
LAYER
  5
603
330
2
100
AcDbSymbolTableRecord
100
AcDbLayerTableRecord
  2
RP_Platte
 70
     0
 62
   251
  6
Continuous
370
    15
390
F
347
535
1001
AcAecLayerStandard
1000

1000

1001
AcCmTransparency
1071
        0
  0
LAYER
  5
607
330
2
100
AcDbSymbolTableRecord
100
AcDbLayerTableRecord
  2
RP_Wärmedämmung
 70
     0
 62
    53
  6
Continuous
370
    15
390
F
347
535
1001
AcAecLayerStandard
1000

1000
Volllinie Farbe 7
1001
AcCmTransparency
1071
        0
  0
LAYER
  5
60B
330
2
100
AcDbSymbolTableRecord
100
AcDbLayerTableRecord
  2
RP_wooden substructure
 70
     0
 62
    17
  6
Continuous
370
    15
390
F
347
535
1001
AcAecLayerStandard
1000

1000

1001
AcCmTransparency
1071
        0
  0
ENDTAB
  0
TABLE
  2
STYLE
  5
3
330
0
100
AcDbSymbolTable
 70
     6
  0
STYLE
  5
11
330
3
100
AcDbSymbolTableRecord
100
AcDbTextStyleTableRecord
  2
Standard
 70
     0
 40
0.0
 41
1.0
 50
0.0
 71
     0
 42
2.5
  3
txt
  4

  0
STYLE
  5
2C
330
3
100
AcDbSymbolTableRecord
100
AcDbTextStyleTableRecord
  2

 70
     1
 40
0.0
 41
1.0
 50
0.0
 71
     0
 42
2.5
  3
ltypeshp.shx
  4

  0
STYLE
  5
114
330
3
100
AcDbSymbolTableRecord
100
AcDbTextStyleTableRecord
  2
TSA-0_18
 70
     0
 40
0.0
 41
1.0
 50
0.0
 71
     0
 42
2.5
  3
TXT.SHX
  4

  0
STYLE
  5
215
330
3
100
AcDbSymbolTableRecord
100
AcDbTextStyleTableRecord
  2
TSA-7
 70
     0
 40
0.0
 41
1.0
 50
0.0
 71
     0
 42
2.5
  3
TXT.SHX
  4

  0
STYLE
  5
5E4
330
3
100
AcDbSymbolTableRecord
100
AcDbTextStyleTableRecord
  2
COMPLEX
 70
     0
 40
0.0
 41
1.0
 50
0.0
 71
     0
 42
2.5
  3
8complex
  4

  0
STYLE
  5
60F
330
3
100
AcDbSymbolTableRecord
100
AcDbTextStyleTableRecord
  2
DYN_DIM
 70
     0
 40
0.0
 41
1.0
 50
0.0
 71
     0
 42
2.5
  3
txt
  4

  0
ENDTAB
  0
TABLE
  2
VIEW
  5
6
330
0
100
AcDbSymbolTable
 70
     0
  0
ENDTAB
  0
TABLE
  2
UCS
  5
7
330
0
100
AcDbSymbolTable
 70
     0
  0
ENDTAB
  0
TABLE
  2
APPID
  5
9
330
0
100
AcDbSymbolTable
 70
     9
  0
APPID
  5
12
330
9
100
AcDbSymbolTableRecord
100
AcDbRegAppTableRecord
  2
ACAD
 70
     0
  0
APPID
  5
5F
330
9
100
AcDbSymbolTableRecord
100
AcDbRegAppTableRecord
  2
TSA_
 70
     0
  0
APPID
  5
60
330
9
100
AcDbSymbolTableRecord
100
AcDbRegAppTableRecord
  2
ZOEKSNOEK
 70
     0
  0
APPID
  5
5C3
330
9
100
AcDbSymbolTableRecord
100
AcDbRegAppTableRecord
  2
ACAD_PSEXT
 70
     0
  0
APPID
  5
5C4
330
9
100
AcDbSymbolTableRecord
100
AcDbRegAppTableRecord
  2
AcadAnnoAV
 70
     0
  0
APPID
  5
5C5
330
9
100
AcDbSymbolTableRecord
100
AcDbRegAppTableRecord
  2
PLOTTRANSPARENCY
 70
     0
  0
APPID
  5
5D2
330
9
100
AcDbSymbolTableRecord
100
AcDbRegAppTableRecord
  2
AcAecLayerStandard
 70
     0
  0
APPID
  5
5DA
330
9
100
AcDbSymbolTableRecord
100
AcDbRegAppTableRecord
  2
AcCmTransparency
 70
     0
  0
APPID
  5
5EA
330
9
100
AcDbSymbolTableRecord
100
AcDbRegAppTableRecord
  2
AcadAnnotative
 70
     0
  0
ENDTAB
  0
TABLE
  2
DIMSTYLE
  5
A
330
0
100
AcDbSymbolTable
 70
     1
100
AcDbDimStyleTable
  0
DIMSTYLE
105
27
330
A
100
AcDbSymbolTableRecord
100
AcDbDimStyleTableRecord
  2
ISO-25
 70
     0
 41
2.5
 42
0.625
 43
3.75
 44
1.25
 73
     0
 74
     0
 77
     1
 78
     8
140
2.5
141
2.5
143
0.03937007874016
147
0.625
171
     3
172
     1
178
     0
271
     2
272
     2
274
     3
278
    44
283
     0
284
     8
340
11
  0
ENDTAB
  0
TABLE
  2
BLOCK_RECORD
  5
1
330
0
100
AcDbSymbolTable
 70
    93
  0
BLOCK_RECORD
  5
1F
102
{ACAD_XDICTIONARY
360
613
102
}
330
1
100
AcDbSymbolTableRecord
100
AcDbBlockTableRecord
  2
*Model_Space
340
22
 70
     0
280
     1
281
     0
  0
BLOCK_RECORD
  5
9D7
102
{ACAD_XDICTIONARY
360
9FB
102
}
330
1
100
AcDbSymbolTableRecord
100
AcDbBlockTableRecord
  2
*Paper_Space
340
9D3
 70
     0
280
     1
281
     0
  0
BLOCK_RECORD
  5
2AA
330
1
100
AcDbSymbolTableRecord
100
AcDbBlockTableRecord
  2
MZSD203$2
340
0
 70
     0
280
     1
281
     0
  0
BLOCK_RECORD
  5
2AB
330
1
100
AcDbSymbolTableRecord
100
AcDbBlockTableRecord
  2
MDET1-203$2
340
0
102
{BLKREFS
331
2F3
102
}
 70
     0
280
     1
281
     0
  0
BLOCK_RECORD
  5
2AC
330
1
100
AcDbSymbolTableRecord
100
AcDbBlockTableRecord
  2
MSCHROEF$2
340
0
102
{BLKREFS
331
2B0
331
2B1
331
2BF
102
}
 70
     0
280
     1
281
     0
  0
BLOCK_RECORD
  5
2B2
330
1
100
AcDbSymbolTableRecord
100
AcDbBlockTableRecord
  2
MBOLBENAM$2
340
0
102
{BLKREFS
331
2BC
331
2BD
331
2BE
331
2C0
331
2C1
331
2C2
102
}
 70
     0
280
     1
281
     0
  0
BLOCK_RECORD
  5
2B3
330
1
100
AcDbSymbolTableRecord
100
AcDbBlockTableRecord
  2
M2DUM$2
340
0
102
{BLKREFS
331
2C3
331
2C6
331
2CB
331
2CF
331
2D3
331
2D9
331
2DC
331
2E1
331
2E7
331
2E9
331
2EB
331
2ED
331
2EF
331
2B6
102
}
 70
     0
280
     1
281
     0
  0
BLOCK_RECORD
  5
2FB
330
1
100
AcDbSymbolTableRecord
100
AcDbBlockTableRecord
  2
NZSD203$2
340
0
 70
     0
280
     1
281
     0
  0
BLOCK_RECORD
  5
2FC
330
1
100
AcDbSymbolTableRecord
100
AcDbBlockTableRecord
  2
NDET1-203$2
340
0
102
{BLKREFS
331
344
102
}
 70
     0
280
     1
281
     0
  0
BLOCK_RECORD
  5
2FD
330
1
100
AcDbSymbolTableRecord
100
AcDbBlockTableRecord
  2
NSCHROEF$2
340
0
102
{BLKREFS
331
301
331
302
331
310
102
}
 70
     0
280
     1
281
     0
  0
BLOCK_RECORD
  5
303
330
1
100
AcDbSymbolTableRecord
100
AcDbBlockTableRecord
  2
NBOLBENAM$2
340
0
102
{BLKREFS
331
30D
331
30E
331
30F
331
311
331
312
331
313
102
}
 70
     0
280
     1
281
     0
  0
BLOCK_RECORD
  5
306
330
1
100
AcDbSymbolTableRecord
100
AcDbBlockTableRecord
  2
N2DUM$2
340
0
102
{BLKREFS
331
314
331
319
331
31E
331
320
331
326
331
32A
331
32F
331
334
331
338
331
33A
331
33C
331
33E
331
340
331
309
102
}
 70
     0
280
     1
281
     0
  0
BLOCK_RECORD
  5
34C
330
1
100
AcDbSymbolTableRecord
100
AcDbBlockTableRecord
  2
HZSD203$2
340
0
 70
     0
280
     1
281
     0
  0
BLOCK_RECORD
  5
34D
330
1
100
AcDbSymbolTableRecord
100
AcDbBlockTableRecord
  2
HDET1-203$2
340
0
102
{BLKREFS
331
39F
102
}
 70
     0
280
     1
281
     0
  0
BLOCK_RECORD
  5
34E
330
1
100
AcDbSymbolTableRecord
100
AcDbBlockTableRecord
  2
HSCHROEF$2
340
0
102
{BLKREFS
331
352
331
353
331
361
102
}
 70
     0
280
     1
281
     0
  0
BLOCK_RECORD
  5
354
330
1
100
AcDbSymbolTableRecord
100
AcDbBlockTableRecord
  2
HBOLBENAM$2
340
0
102
{BLKREFS
331
35E
331
35F
331
360
331
362
331
363
331
364
102
}
 70
     0
280
     1
281
     0
  0
BLOCK_RECORD
  5
357
330
1
100
AcDbSymbolTableRecord
100
AcDbBlockTableRecord
  2
H2DUM$2
340
0
102
{BLKREFS
331
367
331
36C
331
371
331
377
331
37F
331
385
331
38A
331
38F
331
393
331
395
331
397
331
399
331
39B
331
35A
102
}
 70
     0
280
     1
281
     0
  0
BLOCK_RECORD
  5
3A7
330
1
100
AcDbSymbolTableRecord
100
AcDbBlockTableRecord
  2
WZSD203$2
340
0
 70
     0
280
     1
281
     0
  0
BLOCK_RECORD
  5
3A8
330
1
100
AcDbSymbolTableRecord
100
AcDbBlockTableRecord
  2
WDET1-203$2
340
0
102
{BLKREFS
331
406
102
}
 70
     0
280
     1
281
     0
  0
BLOCK_RECORD
  5
3A9
330
1
100
AcDbSymbolTableRecord
100
AcDbBlockTableRecord
  2
WSCHROEF$2
340
0
102
{BLKREFS
331
3AD
331
3AE
331
3BC
102
}
 70
     0
280
     1
281
     0
  0
BLOCK_RECORD
  5
3AF
330
1
100
AcDbSymbolTableRecord
100
AcDbBlockTableRecord
  2
WBOLBENAM$2
340
0
102
{BLKREFS
331
3B9
331
3BA
331
3BB
331
3BD
331
3BE
331
3BF
102
}
 70
     0
280
     1
281
     0
  0
BLOCK_RECORD
  5
3B2
330
1
100
AcDbSymbolTableRecord
100
AcDbBlockTableRecord
  2
W2DUM$2
340
0
102
{BLKREFS
331
3C2
331
3C8
331
3CD
331
3D3
331
3DB
331
3E1
331
3E7
331
3EC
331
3F2
331
3F6
331
3FA
331
3FE
331
402
331
3B5
102
}
 70
     0
280
     1
281
     0
  0
BLOCK_RECORD
  5
40E
330
1
100
AcDbSymbolTableRecord
100
AcDbBlockTableRecord
  2
BZSD203$2
340
0
 70
     0
280
     1
281
     0
  0
BLOCK_RECORD
  5
40F
330
1
100
AcDbSymbolTableRecord
100
AcDbBlockTableRecord
  2
BDET1-203$2
340
0
102
{BLKREFS
331
477
102
}
 70
     0
280
     1
281
     0
  0
BLOCK_RECORD
  5
410
330
1
100
AcDbSymbolTableRecord
100
AcDbBlockTableRecord
  2
BSCHROEF$2
340
0
102
{BLKREFS
331
414
331
415
331
428
102
}
 70
     0
280
     1
281
     0
  0
BLOCK_RECORD
  5
41B
330
1
100
AcDbSymbolTableRecord
100
AcDbBlockTableRecord
  2
BBOLBENAM$2
340
0
102
{BLKREFS
331
425
331
426
331
427
331
42D
331
42E
331
42F
102
}
 70
     0
280
     1
281
     0
  0
BLOCK_RECORD
  5
41E
330
1
100
AcDbSymbolTableRecord
100
AcDbBlockTableRecord
  2
B2DUM$2
340
0
102
{BLKREFS
331
433
331
439
331
43E
331
444
331
44C
331
452
331
458
331
45D
331
463
331
467
331
46B
331
46F
331
473
331
421
102
}
 70
     0
280
     1
281
     0
  0
BLOCK_RECORD
  5
47F
330
1
100
AcDbSymbolTableRecord
100
AcDbBlockTableRecord
  2
DZSD203$2
340
0
 70
     0
280
     1
281
     0
  0
BLOCK_RECORD
  5
480
330
1
100
AcDbSymbolTableRecord
100
AcDbBlockTableRecord
  2
DDET1-203$2
340
0
102
{BLKREFS
331
4E8
102
}
 70
     0
280
     1
281
     0
  0
BLOCK_RECORD
  5
481
330
1
100
AcDbSymbolTableRecord
100
AcDbBlockTableRecord
  2
DSCHROEF$2
340
0
102
{BLKREFS
331
485
331
486
331
499
331
542
331
543
331
54C
102
}
 70
     0
280
     1
281
     0
  0
BLOCK_RECORD
  5
48C
330
1
100
AcDbSymbolTableRecord
100
AcDbBlockTableRecord
  2
DBOLBENAM$2
340
0
102
{BLKREFS
331
496
331
497
331
498
331
49E
331
49F
331
4A0
331
549
331
54A
331
54B
331
551
331
552
331
553
102
}
 70
     0
280
     1
281
     0
  0
BLOCK_RECORD
  5
48F
330
1
100
AcDbSymbolTableRecord
100
AcDbBlockTableRecord
  2
D2DUM$2
340
0
102
{BLKREFS
331
4A4
331
4AA
331
4AF
331
4B5
331
4BD
331
4C3
331
4C9
331
4CE
331
4D4
331
4D8
331
4DC
331
4E0
331
4E4
331
492
331
557
331
55D
331
562
331
568
331
570
331
576
331
57C
331
581
331
587
331
58B
331
58F
331
593
331
597
102
}
 70
     0
280
     1
281
     0
  0
BLOCK_RECORD
  5
1B
330
1
100
AcDbSymbolTableRecord
100
AcDbBlockTableRecord
  2
*Paper_Space92
340
1E
 70
     0
280
     1
281
     0
  0
ENDTAB
  0
ENDSEC
  0
SECTION
  2
BLOCKS
  0
BLOCK
  5
20
330
1F
100
AcDbEntity
  8
0
100
AcDbBlockBegin
  2
*Model_Space
 70
     0
 10
0.0
 20
0.0
 30
0.0
  3
*Model_Space
  1

  0
ENDBLK
  5
21
330
1F
100
AcDbEntity
  8
0
100
AcDbBlockEnd
  0
BLOCK
  5
9D8
330
9D7
100
AcDbEntity
 67
     1
  8
0
100
AcDbBlockBegin
  2
*Paper_Space
 70
     0
 10
0.0
 20
0.0
 30
0.0
  3
*Paper_Space
  1

  0
ENDBLK
  5
9D9
330
9D7
100
AcDbEntity
 67
     1
  8
0
100
AcDbBlockEnd
  0
BLOCK
  5
2F9
330
2AA
100
AcDbEntity
  8
0
100
AcDbBlockBegin
  2
MZSD203$2
 70
     0
 10
0.0
 20
0.0
 30
0.0
  3
MZSD203$2
  1

  0
INSERT
  5
2F3
330
2AA
100
AcDbEntity
  8
A--L1---
100
AcDbBlockReference
  2
MDET1-203$2
 10
335.0
 20
607.5
 30
0.0
  0
LWPOLYLINE
  5
2F4
330
2AA
100
AcDbEntity
  8
A--L107-
  6
Continuous
 62
     1
 48
400.0
100
AcDbPolyline
 90
        2
 70
     0
 43
0.0
 10
1000.0
 20
295.0
 10
100.0
 20
295.0
1001
TSA_
1071
        1
1071
        2
1071
        8
1071
      255
1071
        0
1004

1040
0.0
1071
        1
  0
LWPOLYLINE
  5
2F5
330
2AA
100
AcDbEntity
  8
A--L107-
  6
Continuous
 62
     1
 48
400.0
100
AcDbPolyline
 90
        2
 70
     0
 43
0.0
 10
1000.0
 20
172.5
 10
100.0
 20
172.5
1001
TSA_
1071
        1
1071
        3
1071
        8
1071
      255
1071
        0
1004

1040
0.0
1071
        1
  0
TEXT
  5
2F6
330
2AA
100
AcDbEntity
  8
A--T1---
 62
     3
100
AcDbText
 10
120.0
 20
215.0
 30
0.0
 40
14.0
  1
Detail: 203
  7
TSA-7
100
AcDbText
1001
TSA_
1071
        1
1071
        4
1071
        6
1071
      127
1071
        0
1004

1040
0.0
1071
        7
  0
LWPOLYLINE
  5
2F7
330
2AA
100
AcDbEntity
  8
A--L98--
  6
Continuous
 62
     1
 48
400.0
100
AcDbPolyline
 90
        4
 70
     1
 43
0.0
 10
0.0
 20
0.0
 10
0.0
 20
1485.0
 10
1050.0
 20
1485.0
 10
1050.0
 20
0.0
1001
TSA_
1071
        1
1071
        5
1071
        8
1071
      255
1071
        0
1004

1040
0.0
1071
        1
  0
LWPOLYLINE
  5
2F8
330
2AA
100
AcDbEntity
  8
A--L98--
  6
Continuous
 62
     1
 48
400.0
100
AcDbPolyline
 90
        4
 70
     1
 43
0.0
 10
100.0
 20
172.5
 10
100.0
 20
1435.0
 10
1000.0
 20
1435.0
 10
1000.0
 20
172.5
1001
TSA_
1071
        1
1071
        6
1071
        8
1071
      255
1071
        0
1004

1040
0.0
1071
        1
  0
ENDBLK
  5
2FA
330
2AA
100
AcDbEntity
  8
0
100
AcDbBlockEnd
  0
BLOCK
  5
2F1
330
2AB
100
AcDbEntity
  8
0
100
AcDbBlockBegin
  2
MDET1-203$2
 70
     0
 10
0.0
 20
0.0
 30
0.0
  3
MDET1-203$2
  1

  0
INSERT
  5
2B0
330
2AB
100
AcDbEntity
  8
A--L1---
100
AcDbBlockReference
  2
MSCHROEF$2
 10
206.5
 20
193.0
 30
0.0
 50
89.99999999742762
1001
TSA_
1071
        1
1071
       -1
1071
        2
1071
      255
1071
        0
1004

1040
0.0
  0
INSERT
  5
2B1
330
2AB
100
AcDbEntity
  8
A--L1---
100
AcDbBlockReference
  2
MSCHROEF$2
 10
246.5
 20
193.0
 30
0.0
 42
-1.0
 50
89.99999999742762
1001
TSA_
1071
        1
1071
       -1
1071
        2
1071
      255
1071
        0
1004

1040
0.0
  0
INSERT
  5
2BC
330
2AB
100
AcDbEntity
  8
A--L1---
100
AcDbBlockReference
  2
MBOLBENAM$2
 10
240.0
 20
222.0
 30
0.0
1001
TSA_
1071
        1
1071
       -1
1071
        2
1071
      255
1071
        0
1004

1040
0.0
  0
INSERT
  5
2BD
330
2AB
100
AcDbEntity
  8
A--L1---
100
AcDbBlockReference
  2
MBOLBENAM$2
 10
240.0
 20
203.5
 30
0.0
1001
TSA_
1071
        1
1071
       -1
1071
        2
1071
      255
1071
        0
1004

1040
0.0
  0
INSERT
  5
2BE
330
2AB
100
AcDbEntity
  8
A--L1---
100
AcDbBlockReference
  2
MBOLBENAM$2
 10
240.0
 20
199.0
 30
0.0
1001
TSA_
1071
        1
1071
       -1
1071
        2
1071
      255
1071
        0
1004

1040
0.0
  0
INSERT
  5
2BF
330
2AB
100
AcDbEntity
  8
A--L1---
100
AcDbBlockReference
  2
MSCHROEF$2
 10
226.5
 20
28.0
 30
0.0
 50
89.99999999742762
1001
TSA_
1071
        1
1071
       -1
1071
        2
1071
      255
1071
        0
1004

1040
0.0
  0
INSERT
  5
2C0
330
2AB
100
AcDbEntity
  8
A--L1---
100
AcDbBlockReference
  2
MBOLBENAM$2
 10
240.0
 20
57.0
 30
0.0
1001
TSA_
1071
        1
1071
       -1
1071
        2
1071
      255
1071
        0
1004

1040
0.0
  0
INSERT
  5
2C1
330
2AB
100
AcDbEntity
  8
A--L1---
100
AcDbBlockReference
  2
MBOLBENAM$2
 10
240.0
 20
38.5
 30
0.0
1001
TSA_
1071
        1
1071
       -1
1071
        2
1071
      255
1071
        0
1004

1040
0.0
  0
INSERT
  5
2C2
330
2AB
100
AcDbEntity
  8
A--L1---
100
AcDbBlockReference
  2
MBOLBENAM$2
 10
240.0
 20
34.0
 30
0.0
1001
TSA_
1071
        1
1071
       -1
1071
        2
1071
      255
1071
        0
1004

1040
0.0
  0
INSERT
  5
2C3
330
2AB
100
AcDbEntity
  8
A--L1---
100
AcDbBlockReference
  2
M2DUM$2
 10
191.5
 20
205.0
 30
0.0
  0
LWPOLYLINE
  5
2C4
330
2AB
100
AcDbEntity
  8
A--L1---
  6
Continuous
 62
     1
 48
400.0
100
AcDbPolyline
 90
        4
 70
     1
 43
0.0
 10
191.5
 20
205.0
 10
191.5
 20
239.0
 10
261.5
 20
239.0
 10
261.5
 20
205.0
1001
TSA_
1071
        1
1071
       -1
1071
        8
1071
        3
1071
        0
1004

1040
0.0
1071
        1
  0
LWPOLYLINE
  5
2C5
330
2AB
100
AcDbEntity
  8
A--L1---
  6
Continuous
 62
     5
 48
400.0
100
AcDbPolyline
 90
        3
 70
     0
 43
0.0
 10
240.0
 20
240.0
 10
240.0
 20
87.0
 10
430.0
 20
87.0
1001
TSA_
1071
        1
1071
       -1
1071
        8
1071
      255
1071
        0
1004

1040
0.0
1071
        5
  0
INSERT
  5
2C6
330
2AB
100
AcDbEntity
  8
A--L1---
100
AcDbBlockReference
  2
M2DUM$2
 10
240.0
 20
240.0
 30
0.0
  0
LWPOLYLINE
  5
2C7
330
2AB
100
AcDbEntity
  8
A--L1---
  6
DASHDOT2
 62
     1
 48
400.0
100
AcDbPolyline
 90
        2
 70
     1
 43
0.0
 10
242.0
 20
239.9999996499497
 42
1.0
 10
238.0
 20
240.0000003500503
 42
1.0
1001
TSA_
1071
        1
1071
       -1
1071
        9
1071
        3
1071
        0
1004

1040
0.0
1071
       34
  0
HATCH
  5
2C8
330
2AB
100
AcDbEntity
  8
A--L1---
 62
     1
100
AcDbHatch
 10
0.0
 20
0.0
 30
0.0
210
0.0
220
0.0
230
1.0
  2
SOLID
 70
     1
 71
     1
 91
        1
 92
        1
 93
        2
 72
     2
 10
240.0
 20
240.0
 40
2.0
 50
359.9999899717978
 51
539.9999899717978
 73
     1
 72
     2
 10
240.0
 20
240.0
 40
2.0
 50
179.9999899717978
 51
359.9999899717978
 73
     1
 97
        0
 75
     0
 76
     1
 98
        1
 10
240.0
 20
240.0
1001
TSA_
1071
        1
1071
       -1
1071
        9
1071
        3
1071
        0
1004

1040
0.0
1071
       34
  0
LWPOLYLINE
  5
2C9
330
2AB
100
AcDbEntity
  8
A--L1---
  6
Continuous
 62
     2
 48
400.0
100
AcDbPolyline
 90
        2
 70
     1
 43
0.0
 10
242.0
 20
239.9999996499497
 42
1.0
 10
238.0
 20
240.0000003500503
 42
1.0
1001
TSA_
1071
        1
1071
       -1
1071
        8
1071
        3
1071
        0
1004

1040
0.0
1071
        7
  0
LWPOLYLINE
  5
2CA
330
2AB
100
AcDbEntity
  8
A--L1---
  6
Continuous
 62
     5
 48
400.0
100
AcDbPolyline
 90
        3
 70
     0
 43
0.0
 10
206.5
 20
193.0
 10
206.5
 20
142.0
 10
-65.0
 20
142.0
1001
TSA_
1071
        1
1071
       -1
1071
        8
1071
      255
1071
        0
1004

1040
0.0
1071
        5
  0
INSERT
  5
2CB
330
2AB
100
AcDbEntity
  8
A--L1---
100
AcDbBlockReference
  2
M2DUM$2
 10
206.5
 20
193.0
 30
0.0
  0
LWPOLYLINE
  5
2CC
330
2AB
100
AcDbEntity
  8
A--L1---
  6
DASHDOT2
 62
     1
 48
400.0
100
AcDbPolyline
 90
        2
 70
     1
 43
0.0
 10
208.5
 20
192.9999996499497
 42
1.0
 10
204.5
 20
193.0000003500503
 42
1.0
1001
TSA_
1071
        1
1071
       -1
1071
        9
1071
        3
1071
        0
1004

1040
0.0
1071
       34
  0
HATCH
  5
2CD
330
2AB
100
AcDbEntity
  8
A--L1---
 62
     1
100
AcDbHatch
 10
0.0
 20
0.0
 30
0.0
210
0.0
220
0.0
230
1.0
  2
SOLID
 70
     1
 71
     1
 91
        1
 92
        1
 93
        2
 72
     2
 10
206.5
 20
193.0
 40
2.0
 50
359.9999899717978
 51
539.9999899717978
 73
     1
 72
     2
 10
206.5
 20
193.0
 40
2.0
 50
179.9999899717978
 51
359.9999899717978
 73
     1
 97
        0
 75
     0
 76
     1
 98
        1
 10
206.5
 20
193.0
1001
TSA_
1071
        1
1071
       -1
1071
        9
1071
        3
1071
        0
1004

1040
0.0
1071
       34
  0
LWPOLYLINE
  5
2CE
330
2AB
100
AcDbEntity
  8
A--L1---
  6
Continuous
 62
     2
 48
400.0
100
AcDbPolyline
 90
        2
 70
     1
 43
0.0
 10
208.5
 20
192.9999996499497
 42
1.0
 10
204.5
 20
193.0000003500503
 42
1.0
1001
TSA_
1071
        1
1071
       -1
1071
        8
1071
        3
1071
        0
1004

1040
0.0
1071
        7
  0
INSERT
  5
2CF
330
2AB
100
AcDbEntity
  8
A--L1---
100
AcDbBlockReference
  2
M2DUM$2
 10
0.0
 20
245.0
 30
0.0
  0
LWPOLYLINE
  5
2D0
330
2AB
100
AcDbEntity
  8
A--L1---
  6
DASHDOT2
 62
     2
 48
400.0
100
AcDbPolyline
 90
        2
 70
     0
 43
0.0
 10
0.0
 20
420.0
 10
0.0
 20
168.0
1001
TSA_
1071
        1
1071
       -1
1071
        8
1071
      255
1071
        0
1004

1040
0.0
1071
       32
  0
LWPOLYLINE
  5
2D1
330
2AB
100
AcDbEntity
  8
A--L1---
  6
DASHDOT2
 62
     2
 48
400.0
100
AcDbPolyline
 90
        2
 70
     0
 43
0.0
 10
453.0
 20
420.0
 10
453.0
 20
168.0
1001
TSA_
1071
        1
1071
       -1
1071
        8
1071
      255
1071
        0
1004

1040
0.0
1071
       32
  0
LWPOLYLINE
  5
2D2
330
2AB
100
AcDbEntity
  8
A--L1---
  6
DASHDOT2
 62
     2
 48
400.0
100
AcDbPolyline
 90
        2
 70
     0
 43
0.0
 10
-25.0
 20
395.0
 10
478.0
 20
395.0
1001
TSA_
1071
        1
1071
       -1
1071
        8
1071
      255
1071
        0
1004

1040
0.0
1071
       32
  0
INSERT
  5
2D3
330
2AB
100
AcDbEntity
  8
A--L1---
100
AcDbBlockReference
  2
M2DUM$2
 10
453.0
 20
395.0
 30
0.0
  0
LWPOLYLINE
  5
2D4
330
2AB
100
AcDbEntity
  8
A--L1---
  6
DASHDOT2
 62
     1
 48
400.0
100
AcDbPolyline
 90
        4
 70
     1
 43
0.0
 10
453.0
 20
395.0
 10
453.0
 20
365.0
 10
0.0
 20
365.0
 10
0.0
 20
395.0
1001
TSA_
1071
        1
1071
       -1
1071
        9
1071
        3
1071
        0
1004

1040
0.0
1071
       34
  0
HATCH
  5
2D5
330
2AB
100
AcDbEntity
  8
A--L1---
 62
     1
100
AcDbHatch
 10
0.0
 20
0.0
 30
0.0
210
0.0
220
0.0
230
1.0
  2
SOLID
 70
     1
 71
     1
 91
        1
 92
        1
 93
        4
 72
     1
 10
453.0
 20
395.0
 11
453.0
 21
365.0
 72
     1
 10
453.0
 20
365.0
 11
0.0
 21
365.0
 72
     1
 10
0.0
 20
365.0
 11
0.0
 21
395.0
 72
     1
 10
0.0
 20
395.0
 11
453.0
 21
395.0
 97
        0
 75
     0
 76
     1
 98
        1
 10
453.0
 20
395.0
1001
TSA_
1071
        1
1071
       -1
1071
        9
1071
        3
1071
        0
1004

1040
0.0
1071
       34
  0
LWPOLYLINE
  5
2D6
330
2AB
100
AcDbEntity
  8
A--L1---
  6
DASHED2
 62
     1
 48
400.0
100
AcDbPolyline
 90
        4
 70
     1
 43
0.0
 10
453.0
 20
395.0
 10
453.0
 20
365.0
 10
0.0
 20
365.0
 10
0.0
 20
395.0
1001
TSA_
1071
        1
1071
       -1
1071
        9
1071
      127
1071
        0
1004

1040
0.0
1071
       11
  0
HATCH
  5
2D7
330
2AB
100
AcDbEntity
  8
A--L1---
 62
     3
100
AcDbHatch
 10
0.0
 20
0.0
 30
0.0
210
0.0
220
0.0
230
1.0
  2
SOLID
 70
     1
 71
     1
 91
        1
 92
        1
 93
        4
 72
     1
 10
453.0
 20
395.0
 11
453.0
 21
365.0
 72
     1
 10
453.0
 20
365.0
 11
0.0
 21
365.0
 72
     1
 10
0.0
 20
365.0
 11
0.0
 21
395.0
 72
     1
 10
0.0
 20
395.0
 11
453.0
 21
395.0
 97
        0
 75
     0
 76
     1
 98
        1
 10
453.0
 20
395.0
1001
TSA_
1071
        1
1071
       -1
1071
        9
1071
      127
1071
        0
1004

1040
0.0
1071
       11
  0
LWPOLYLINE
  5
2D8
330
2AB
100
AcDbEntity
  8
A--L1---
  6
Continuous
 62
     2
 48
400.0
100
AcDbPolyline
 90
        2
 70
     0
 43
0.0
 10
453.0
 20
365.0
 10
0.0
 20
365.0
1001
TSA_
1071
        1
1071
       -1
1071
        8
1071
        3
1071
        0
1004

1040
0.0
1071
        9
  0
INSERT
  5
2D9
330
2AB
100
AcDbEntity
  8
A--L1---
100
AcDbBlockReference
  2
M2DUM$2
 10
204.0
 20
40.0
 30
0.0
  0
LWPOLYLINE
  5
2DA
330
2AB
100
AcDbEntity
  8
A--L1---
  6
Continuous
 62
     1
 48
400.0
100
AcDbPolyline
 90
        4
 70
     1
 43
0.0
 10
204.0
 20
40.0
 10
204.0
 20
74.0
 10
249.0
 20
74.0
 10
249.0
 20
40.0
1001
TSA_
1071
        1
1071
       -1
1071
        8
1071
        3
1071
        0
1004

1040
0.0
1071
        1
  0
LWPOLYLINE
  5
2DB
330
2AB
100
AcDbEntity
  8
A--L1---
  6
Continuous
 62
     5
 48
400.0
100
AcDbPolyline
 90
        3
 70
     0
 43
0.0
 10
240.0
 20
75.0
 10
240.0
 20
-78.0
 10
430.0
 20
-78.0
1001
TSA_
1071
        1
1071
       -1
1071
        8
1071
      255
1071
        0
1004

1040
0.0
1071
        5
  0
INSERT
  5
2DC
330
2AB
100
AcDbEntity
  8
A--L1---
100
AcDbBlockReference
  2
M2DUM$2
 10
240.0
 20
75.0
 30
0.0
  0
LWPOLYLINE
  5
2DD
330
2AB
100
AcDbEntity
  8
A--L1---
  6
DASHDOT2
 62
     1
 48
400.0
100
AcDbPolyline
 90
        2
 70
     1
 43
0.0
 10
242.0
 20
74.99999964994971
 42
1.0
 10
238.0
 20
75.00000035005029
 42
1.0
1001
TSA_
1071
        1
1071
       -1
1071
        9
1071
        3
1071
        0
1004

1040
0.0
1071
       34
  0
HATCH
  5
2DE
330
2AB
100
AcDbEntity
  8
A--L1---
 62
     1
100
AcDbHatch
 10
0.0
 20
0.0
 30
0.0
210
0.0
220
0.0
230
1.0
  2
SOLID
 70
     1
 71
     1
 91
        1
 92
        1
 93
        2
 72
     2
 10
240.0
 20
75.0
 40
2.0
 50
359.9999899717978
 51
539.9999899717978
 73
     1
 72
     2
 10
240.0
 20
75.0
 40
2.0
 50
179.9999899717978
 51
359.9999899717978
 73
     1
 97
        0
 75
     0
 76
     1
 98
        1
 10
240.0
 20
75.0
1001
TSA_
1071
        1
1071
       -1
1071
        9
1071
        3
1071
        0
1004

1040
0.0
1071
       34
  0
LWPOLYLINE
  5
2DF
330
2AB
100
AcDbEntity
  8
A--L1---
  6
Continuous
 62
     2
 48
400.0
100
AcDbPolyline
 90
        2
 70
     1
 43
0.0
 10
242.0
 20
74.99999964994971
 42
1.0
 10
238.0
 20
75.00000035005029
 42
1.0
1001
TSA_
1071
        1
1071
       -1
1071
        8
1071
        3
1071
        0
1004

1040
0.0
1071
        7
  0
LWPOLYLINE
  5
2E0
330
2AB
100
AcDbEntity
  8
A--L1---
  6
Continuous
 62
     5
 48
400.0
100
AcDbPolyline
 90
        3
 70
     0
 43
0.0
 10
226.5
 20
28.0
 10
226.5
 20
-23.0
 10
-65.0
 20
-23.0
1001
TSA_
1071
        1
1071
       -1
1071
        8
1071
      255
1071
        0
1004

1040
0.0
1071
        5
  0
INSERT
  5
2E1
330
2AB
100
AcDbEntity
  8
A--L1---
100
AcDbBlockReference
  2
M2DUM$2
 10
226.5
 20
28.0
 30
0.0
  0
LWPOLYLINE
  5
2E2
330
2AB
100
AcDbEntity
  8
A--L1---
  6
DASHDOT2
 62
     1
 48
400.0
100
AcDbPolyline
 90
        2
 70
     1
 43
0.0
 10
228.5
 20
27.99999964994971
 42
1.0
 10
224.5
 20
28.00000035005029
 42
1.0
1001
TSA_
1071
        1
1071
       -1
1071
        9
1071
        3
1071
        0
1004

1040
0.0
1071
       34
  0
HATCH
  5
2E3
330
2AB
100
AcDbEntity
  8
A--L1---
 62
     1
100
AcDbHatch
 10
0.0
 20
0.0
 30
0.0
210
0.0
220
0.0
230
1.0
  2
SOLID
 70
     1
 71
     1
 91
        1
 92
        1
 93
        2
 72
     2
 10
226.5
 20
28.0
 40
2.0
 50
359.9999899717978
 51
539.9999899717978
 73
     1
 72
     2
 10
226.5
 20
28.0
 40
2.0
 50
179.9999899717978
 51
359.9999899717978
 73
     1
 97
        0
 75
     0
 76
     1
 98
        1
 10
226.5
 20
28.0
1001
TSA_
1071
        1
1071
       -1
1071
        9
1071
        3
1071
        0
1004

1040
0.0
1071
       34
  0
LWPOLYLINE
  5
2E4
330
2AB
100
AcDbEntity
  8
A--L1---
  6
Continuous
 62
     2
 48
400.0
100
AcDbPolyline
 90
        2
 70
     1
 43
0.0
 10
228.5
 20
27.99999964994971
 42
1.0
 10
224.5
 20
28.00000035005029
 42
1.0
1001
TSA_
1071
        1
1071
       -1
1071
        8
1071
        3
1071
        0
1004

1040
0.0
1071
        7
  0
LWPOLYLINE
  5
2E5
330
2AB
100
AcDbEntity
  8
A--L1---
  6
DASHDOT2
 62
     2
 48
400.0
100
AcDbPolyline
 90
        2
 70
     0
 43
0.0
 10
0.0
 20
100.0
 10
0.0
 20
3.0
1001
TSA_
1071
        1
1071
       -1
1071
        8
1071
      255
1071
        0
1004

1040
0.0
1071
       32
  0
LWPOLYLINE
  5
2E6
330
2AB
100
AcDbEntity
  8
A--L1---
  6
DASHDOT2
 62
     2
 48
400.0
100
AcDbPolyline
 90
        2
 70
     0
 43
0.0
 10
453.0
 20
100.0
 10
453.0
 20
3.0
1001
TSA_
1071
        1
1071
       -1
1071
        8
1071
      255
1071
        0
1004

1040
0.0
1071
       32
  0
INSERT
  5
2E7
330
2AB
100
AcDbEntity
  8
A--L1---
100
AcDbBlockReference
  2
M2DUM$2
 10
0.0
 20
193.0
 30
0.0
  0
LWPOLYLINE
  5
2E8
330
2AB
100
AcDbEntity
  8
A--L1---
  6
Continuous
 62
     1
 48
400.0
100
AcDbPolyline
 90
        4
 70
     0
 43
0.0
 10
0.0
 20
193.0
 10
221.5
 20
193.0
 10
221.5
 20
199.0
 10
0.0
 20
199.0
1001
TSA_
1071
        1
1071
       -1
1071
        8
1071
        3
1071
        0
1004

1040
0.0
1071
       10
  0
INSERT
  5
2E9
330
2AB
100
AcDbEntity
  8
A--L1---
100
AcDbBlockReference
  2
M2DUM$2
 10
186.5
 20
199.0
 30
0.0
  0
LWPOLYLINE
  5
2EA
330
2AB
100
AcDbEntity
  8
A--L1---
  6
Continuous
 62
     1
 48
400.0
100
AcDbPolyline
 90
        4
 70
     1
 43
0.0
 10
186.5
 20
199.0
 10
186.5
 20
205.0
 10
266.5
 20
205.0
 10
266.5
 20
199.0
1001
TSA_
1071
        1
1071
       -1
1071
        8
1071
        3
1071
        0
1004

1040
0.0
1071
       10
  0
INSERT
  5
2EB
330
2AB
100
AcDbEntity
  8
A--L1---
100
AcDbBlockReference
  2
M2DUM$2
 10
0.0
 20
28.0
 30
0.0
  0
LWPOLYLINE
  5
2EC
330
2AB
100
AcDbEntity
  8
A--L1---
  6
Continuous
 62
     1
 48
400.0
100
AcDbPolyline
 90
        4
 70
     0
 43
0.0
 10
0.0
 20
28.0
 10
453.0
 20
28.0
 10
453.0
 20
34.0
 10
0.0
 20
34.0
1001
TSA_
1071
        1
1071
       -1
1071
        8
1071
        3
1071
        0
1004

1040
0.0
1071
       10
  0
INSERT
  5
2ED
330
2AB
100
AcDbEntity
  8
A--L1---
100
AcDbBlockReference
  2
M2DUM$2
 10
186.5
 20
34.0
 30
0.0
  0
LWPOLYLINE
  5
2EE
330
2AB
100
AcDbEntity
  8
A--L1---
  6
Continuous
 62
     1
 48
400.0
100
AcDbPolyline
 90
        4
 70
     1
 43
0.0
 10
186.5
 20
34.0
 10
186.5
 20
40.0
 10
266.5
 20
40.0
 10
266.5
 20
34.0
1001
TSA_
1071
        1
1071
       -1
1071
        8
1071
        3
1071
        0
1004

1040
0.0
1071
       10
  0
INSERT
  5
2EF
330
2AB
100
AcDbEntity
  8
A--L1---
100
AcDbBlockReference
  2
M2DUM$2
 10
453.0
 20
199.0
 30
0.0
  0
LWPOLYLINE
  5
2F0
330
2AB
100
AcDbEntity
  8
A--L1---
  6
Continuous
 62
     1
 48
400.0
100
AcDbPolyline
 90
        4
 70
     0
 43
0.0
 10
453.0
 20
199.0
 10
231.5
 20
199.0
 10
231.5
 20
193.0
 10
453.0
 20
193.0
1001
TSA_
1071
        1
1071
       -1
1071
        8
1071
        3
1071
        0
1004

1040
0.0
1071
       10
  0
ENDBLK
  5
2F2
330
2AB
100
AcDbEntity
  8
0
100
AcDbBlockEnd
  0
BLOCK
  5
2AE
330
2AC
100
AcDbEntity
  8
0
100
AcDbBlockBegin
  2
MSCHROEF$2
 70
     0
 10
0.0
 20
0.0
 30
0.0
  3
MSCHROEF$2
  1

  0
LWPOLYLINE
  5
2AD
330
2AC
100
AcDbEntity
  8
A--L1---
  6
Continuous
 62
     5
 48
400.0
100
AcDbPolyline
 90
       12
 70
     0
 43
0.0
 10
4.0
 20
2.0
 10
8.0
 20
-2.0
 10
12.0
 20
2.0
 10
16.0
 20
-2.0
 10
20.0
 20
2.0
 10
24.0
 20
-2.0
 10
28.0
 20
2.0
 10
30.0
 20
0.0
 10
0.0
 20
0.0
 10
-2.0
 20
2.5
 10
-2.0
 20
-2.5
 10
0.0
 20
0.0
1001
TSA_
1071
        1
1071
       -1
1071
        8
1071
      255
1071
        0
1004

1040
0.0
1071
        5
  0
ENDBLK
  5
2AF
330
2AC
100
AcDbEntity
  8
0
100
AcDbBlockEnd
  0
BLOCK
  5
2BA
330
2B2
100
AcDbEntity
  8
0
100
AcDbBlockBegin
  2
MBOLBENAM$2
 70
     0
 10
0.0
 20
0.0
 30
0.0
  3
MBOLBENAM$2
  1

  0
INSERT
  5
2B6
330
2B2
100
AcDbEntity
  8
A--L1---
100
AcDbBlockReference
  2
M2DUM$2
 10
1.999999999999969
 20
-0.0000003500502928
 30
0.0
  0
LWPOLYLINE
  5
2B7
330
2B2
100
AcDbEntity
  8
A--L1---
  6
DASHDOT2
 62
     1
 48
400.0
100
AcDbPolyline
 90
        2
 70
     1
 43
0.0
 10
1.999999999999969
 20
-0.0000003500502928
 42
1.0
 10
-1.999999999999969
 20
0.0000003500502928
 42
1.0
1001
TSA_
1071
        1
1071
       -1
1071
        9
1071
        3
1071
        0
1004

1040
0.0
1071
       34
  0
HATCH
  5
2B8
330
2B2
100
AcDbEntity
  8
A--L1---
 62
     1
100
AcDbHatch
 10
0.0
 20
0.0
 30
0.0
210
0.0
220
0.0
230
1.0
  2
SOLID
 70
     1
 71
     1
 91
        1
 92
        1
 93
        2
 72
     2
 10
0.0
 20
0.0
 40
2.0
 50
359.9999899717978
 51
539.9999899717978
 73
     1
 72
     2
 10
0.0
 20
0.0
 40
2.0
 50
179.9999899717978
 51
359.9999899717978
 73
     1
 97
        0
 75
     0
 76
     1
 98
        1
 10
1.999999999999969
 20
-0.0000003500502928
1001
TSA_
1071
        1
1071
       -1
1071
        9
1071
        3
1071
        0
1004

1040
0.0
1071
       34
  0
LWPOLYLINE
  5
2B9
330
2B2
100
AcDbEntity
  8
A--L1---
  6
Continuous
 62
     2
 48
400.0
100
AcDbPolyline
 90
        2
 70
     1
 43
0.0
 10
1.999999999999969
 20
-0.0000003500502928
 42
1.0
 10
-1.999999999999969
 20
0.0000003500502928
 42
1.0
1001
TSA_
1071
        1
1071
       -1
1071
        8
1071
        3
1071
        0
1004

1040
0.0
1071
        7
  0
ENDBLK
  5
2BB
330
2B2
100
AcDbEntity
  8
0
100
AcDbBlockEnd
  0
BLOCK
  5
2B4
330
2B3
100
AcDbEntity
  8
0
100
AcDbBlockBegin
  2
M2DUM$2
 70
     0
 10
0.0
 20
0.0
 30
0.0
  3
M2DUM$2
  1

  0
ENDBLK
  5
2B5
330
2B3
100
AcDbEntity
  8
0
100
AcDbBlockEnd
  0
BLOCK
  5
34A
330
2FB
100
AcDbEntity
  8
0
100
AcDbBlockBegin
  2
NZSD203$2
 70
     0
 10
0.0
 20
0.0
 30
0.0
  3
NZSD203$2
  1

  0
INSERT
  5
344
330
2FB
100
AcDbEntity
  8
A--L1---
100
AcDbBlockReference
  2
NDET1-203$2
 10
335.0
 20
607.5
 30
0.0
  0
LWPOLYLINE
  5
345
330
2FB
100
AcDbEntity
  8
A--L107-
  6
Continuous
 62
     1
 48
400.0
100
AcDbPolyline
 90
        2
 70
     0
 43
0.0
 10
1000.0
 20
295.0
 10
100.0
 20
295.0
1001
TSA_
1071
        1
1071
        2
1071
        8
1071
      255
1071
        0
1004

1040
0.0
1071
        1
  0
LWPOLYLINE
  5
346
330
2FB
100
AcDbEntity
  8
A--L107-
  6
Continuous
 62
     1
 48
400.0
100
AcDbPolyline
 90
        2
 70
     0
 43
0.0
 10
1000.0
 20
172.5
 10
100.0
 20
172.5
1001
TSA_
1071
        1
1071
        3
1071
        8
1071
      255
1071
        0
1004

1040
0.0
1071
        1
  0
TEXT
  5
347
330
2FB
100
AcDbEntity
  8
A--T1---
 62
     3
100
AcDbText
 10
120.0
 20
215.0
 30
0.0
 40
14.0
  1
Detail: 203
  7
TSA-7
100
AcDbText
1001
TSA_
1071
        1
1071
        4
1071
        6
1071
      127
1071
        0
1004

1040
0.0
1071
        7
  0
LWPOLYLINE
  5
348
330
2FB
100
AcDbEntity
  8
A--L98--
  6
Continuous
 62
     1
 48
400.0
100
AcDbPolyline
 90
        4
 70
     1
 43
0.0
 10
0.0
 20
0.0
 10
0.0
 20
1485.0
 10
1050.0
 20
1485.0
 10
1050.0
 20
0.0
1001
TSA_
1071
        1
1071
        5
1071
        8
1071
      255
1071
        0
1004

1040
0.0
1071
        1
  0
LWPOLYLINE
  5
349
330
2FB
100
AcDbEntity
  8
A--L98--
  6
Continuous
 62
     1
 48
400.0
100
AcDbPolyline
 90
        4
 70
     1
 43
0.0
 10
100.0
 20
172.5
 10
100.0
 20
1435.0
 10
1000.0
 20
1435.0
 10
1000.0
 20
172.5
1001
TSA_
1071
        1
1071
        6
1071
        8
1071
      255
1071
        0
1004

1040
0.0
1071
        1
  0
ENDBLK
  5
34B
330
2FB
100
AcDbEntity
  8
0
100
AcDbBlockEnd
  0
BLOCK
  5
342
330
2FC
100
AcDbEntity
  8
0
100
AcDbBlockBegin
  2
NDET1-203$2
 70
     0
 10
0.0
 20
0.0
 30
0.0
  3
NDET1-203$2
  1

  0
INSERT
  5
301
330
2FC
100
AcDbEntity
  8
A--L1---
100
AcDbBlockReference
  2
NSCHROEF$2
 10
206.5
 20
193.0
 30
0.0
 50
89.99999999742762
1001
TSA_
1071
        1
1071
       -1
1071
        2
1071
      255
1071
        0
1004

1040
0.0
  0
INSERT
  5
302
330
2FC
100
AcDbEntity
  8
A--L1---
100
AcDbBlockReference
  2
NSCHROEF$2
 10
246.5
 20
193.0
 30
0.0
 42
-1.0
 50
89.99999999742762
1001
TSA_
1071
        1
1071
       -1
1071
        2
1071
      255
1071
        0
1004

1040
0.0
  0
INSERT
  5
30D
330
2FC
100
AcDbEntity
  8
A--L1---
100
AcDbBlockReference
  2
NBOLBENAM$2
 10
240.0
 20
222.0
 30
0.0
1001
TSA_
1071
        1
1071
       -1
1071
        2
1071
      255
1071
        0
1004

1040
0.0
  0
INSERT
  5
30E
330
2FC
100
AcDbEntity
  8
A--L1---
100
AcDbBlockReference
  2
NBOLBENAM$2
 10
240.0
 20
203.5
 30
0.0
1001
TSA_
1071
        1
1071
       -1
1071
        2
1071
      255
1071
        0
1004

1040
0.0
  0
INSERT
  5
30F
330
2FC
100
AcDbEntity
  8
A--L1---
100
AcDbBlockReference
  2
NBOLBENAM$2
 10
240.0
 20
199.0
 30
0.0
1001
TSA_
1071
        1
1071
       -1
1071
        2
1071
      255
1071
        0
1004

1040
0.0
  0
INSERT
  5
310
330
2FC
100
AcDbEntity
  8
A--L1---
100
AcDbBlockReference
  2
NSCHROEF$2
 10
226.5
 20
28.0
 30
0.0
 50
89.99999999742762
1001
TSA_
1071
        1
1071
       -1
1071
        2
1071
      255
1071
        0
1004

1040
0.0
  0
INSERT
  5
311
330
2FC
100
AcDbEntity
  8
A--L1---
100
AcDbBlockReference
  2
NBOLBENAM$2
 10
240.0
 20
57.0
 30
0.0
1001
TSA_
1071
        1
1071
       -1
1071
        2
1071
      255
1071
        0
1004

1040
0.0
  0
INSERT
  5
312
330
2FC
100
AcDbEntity
  8
A--L1---
100
AcDbBlockReference
  2
NBOLBENAM$2
 10
240.0
 20
38.5
 30
0.0
1001
TSA_
1071
        1
1071
       -1
1071
        2
1071
      255
1071
        0
1004

1040
0.0
  0
INSERT
  5
313
330
2FC
100
AcDbEntity
  8
A--L1---
100
AcDbBlockReference
  2
NBOLBENAM$2
 10
240.0
 20
34.0
 30
0.0
1001
TSA_
1071
        1
1071
       -1
1071
        2
1071
      255
1071
        0
1004

1040
0.0
  0
INSERT
  5
314
330
2FC
100
AcDbEntity
  8
A--L1---
100
AcDbBlockReference
  2
N2DUM$2
 10
191.5
 20
205.0
 30
0.0
  0
LWPOLYLINE
  5
315
330
2FC
100
AcDbEntity
  8
A--L1---
  6
Continuous
 62
     1
 48
400.0
100
AcDbPolyline
 90
        4
 70
     1
 43
0.0
 10
191.5
 20
205.0
 10
191.5
 20
239.0
 10
261.5
 20
239.0
 10
261.5
 20
205.0
1001
TSA_
1071
        1
1071
       -1
1071
        8
1071
       29
1071
        0
1004

1040
0.0
1071
        1
  0
LWPOLYLINE
  5
316
330
2FC
100
AcDbEntity
  8
A--L1---
  6
Continuous
 62
     5
 48
400.0
100
AcDbPolyline
 90
        3
 70
     0
 43
0.0
 10
240.0
 20
240.0
 10
240.0
 20
87.0
 10
430.0
 20
87.0
1001
TSA_
1071
        1
1071
       -1
1071
        8
1071
      255
1071
        0
1004

1040
0.0
1071
        5
  0
LWPOLYLINE
  5
317
330
2FC
100
AcDbEntity
  8
A--L1---
  6
DASHDOT2
 62
     1
 48
400.0
100
AcDbPolyline
 90
        2
 70
     1
 43
0.0
 10
242.0
 20
239.9999996499497
 42
1.0
 10
238.0
 20
240.0000003500503
 42
1.0
1001
TSA_
1071
        1
1071
       -1
1071
        9
1071
      125
1071
        0
1004

1040
0.0
1071
       34
  0
HATCH
  5
318
330
2FC
100
AcDbEntity
  8
A--L1---
 62
     1
100
AcDbHatch
 10
0.0
 20
0.0
 30
0.0
210
0.0
220
0.0
230
1.0
  2
SOLID
 70
     1
 71
     1
 91
        1
 92
        1
 93
        2
 72
     2
 10
240.0
 20
240.0
 40
2.0
 50
359.9999899717978
 51
539.9999899717978
 73
     1
 72
     2
 10
240.0
 20
240.0
 40
2.0
 50
179.9999899717978
 51
359.9999899717978
 73
     1
 97
        0
 75
     0
 76
     1
 98
        1
 10
240.0
 20
240.0
1001
TSA_
1071
        1
1071
       -1
1071
        9
1071
      125
1071
        0
1004

1040
0.0
1071
       34
  0
INSERT
  5
319
330
2FC
100
AcDbEntity
  8
A--L1---
100
AcDbBlockReference
  2
N2DUM$2
 10
240.0
 20
240.0
 30
0.0
  0
LWPOLYLINE
  5
31A
330
2FC
100
AcDbEntity
  8
A--L1---
  6
Continuous
 62
     2
 48
400.0
100
AcDbPolyline
 90
        2
 70
     1
 43
0.0
 10
242.0
 20
239.9999996499497
 42
1.0
 10
238.0
 20
240.0000003500503
 42
1.0
1001
TSA_
1071
        1
1071
       -1
1071
        8
1071
      125
1071
        0
1004

1040
0.0
1071
        7
  0
LWPOLYLINE
  5
31B
330
2FC
100
AcDbEntity
  8
A--L1---
  6
Continuous
 62
     5
 48
400.0
100
AcDbPolyline
 90
        3
 70
     0
 43
0.0
 10
206.5
 20
193.0
 10
206.5
 20
142.0
 10
-65.0
 20
142.0
1001
TSA_
1071
        1
1071
       -1
1071
        8
1071
      255
1071
        0
1004

1040
0.0
1071
        5
  0
LWPOLYLINE
  5
31C
330
2FC
100
AcDbEntity
  8
A--L1---
  6
DASHDOT2
 62
     1
 48
400.0
100
AcDbPolyline
 90
        2
 70
     1
 43
0.0
 10
208.5
 20
192.9999996499497
 42
1.0
 10
204.5
 20
193.0000003500503
 42
1.0
1001
TSA_
1071
        1
1071
       -1
1071
        9
1071
      125
1071
        0
1004

1040
0.0
1071
       34
  0
HATCH
  5
31D
330
2FC
100
AcDbEntity
  8
A--L1---
 62
     1
100
AcDbHatch
 10
0.0
 20
0.0
 30
0.0
210
0.0
220
0.0
230
1.0
  2
SOLID
 70
     1
 71
     1
 91
        1
 92
        1
 93
        2
 72
     2
 10
206.5
 20
193.0
 40
2.0
 50
359.9999899717978
 51
539.9999899717978
 73
     1
 72
     2
 10
206.5
 20
193.0
 40
2.0
 50
179.9999899717978
 51
359.9999899717978
 73
     1
 97
        0
 75
     0
 76
     1
 98
        1
 10
206.5
 20
193.0
1001
TSA_
1071
        1
1071
       -1
1071
        9
1071
      125
1071
        0
1004

1040
0.0
1071
       34
  0
INSERT
  5
31E
330
2FC
100
AcDbEntity
  8
A--L1---
100
AcDbBlockReference
  2
N2DUM$2
 10
206.5
 20
193.0
 30
0.0
  0
LWPOLYLINE
  5
31F
330
2FC
100
AcDbEntity
  8
A--L1---
  6
Continuous
 62
     2
 48
400.0
100
AcDbPolyline
 90
        2
 70
     1
 43
0.0
 10
208.5
 20
192.9999996499497
 42
1.0
 10
204.5
 20
193.0000003500503
 42
1.0
1001
TSA_
1071
        1
1071
       -1
1071
        8
1071
      125
1071
        0
1004

1040
0.0
1071
        7
  0
INSERT
  5
320
330
2FC
100
AcDbEntity
  8
A--L1---
100
AcDbBlockReference
  2
N2DUM$2
 10
0.0
 20
245.0
 30
0.0
  0
LWPOLYLINE
  5
321
330
2FC
100
AcDbEntity
  8
A--L1---
  6
DASHDOT2
 62
     2
 48
400.0
100
AcDbPolyline
 90
        2
 70
     0
 43
0.0
 10
0.0
 20
420.0
 10
0.0
 20
168.0
1001
TSA_
1071
        1
1071
       -1
1071
        8
1071
      255
1071
        0
1004

1040
0.0
1071
       32
  0
LWPOLYLINE
  5
322
330
2FC
100
AcDbEntity
  8
A--L1---
  6
DASHDOT2
 62
     2
 48
400.0
100
AcDbPolyline
 90
        2
 70
     0
 43
0.0
 10
453.0
 20
420.0
 10
453.0
 20
168.0
1001
TSA_
1071
        1
1071
       -1
1071
        8
1071
      255
1071
        0
1004

1040
0.0
1071
       32
  0
LWPOLYLINE
  5
323
330
2FC
100
AcDbEntity
  8
A--L1---
  6
DASHDOT2
 62
     2
 48
400.0
100
AcDbPolyline
 90
        2
 70
     0
 43
0.0
 10
-25.0
 20
395.0
 10
478.0
 20
395.0
1001
TSA_
1071
        1
1071
       -1
1071
        8
1071
      255
1071
        0
1004

1040
0.0
1071
       32
  0
LWPOLYLINE
  5
324
330
2FC
100
AcDbEntity
  8
A--L1---
  6
DASHED2
 62
     1
 48
400.0
100
AcDbPolyline
 90
        4
 70
     1
 43
0.0
 10
453.0
 20
395.0
 10
453.0
 20
365.0
 10
0.0
 20
365.0
 10
0.0
 20
395.0
1001
TSA_
1071
        1
1071
       -1
1071
        9
1071
      125
1071
        0
1004

1040
0.0
1071
       16
  0
HATCH
  5
325
330
2FC
100
AcDbEntity
  8
A--L1---
 62
   253
100
AcDbHatch
 10
0.0
 20
0.0
 30
0.0
210
0.0
220
0.0
230
1.0
  2
SOLID
 70
     1
 71
     1
 91
        1
 92
        1
 93
        4
 72
     1
 10
453.0
 20
395.0
 11
453.0
 21
365.0
 72
     1
 10
453.0
 20
365.0
 11
0.0
 21
365.0
 72
     1
 10
0.0
 20
365.0
 11
0.0
 21
395.0
 72
     1
 10
0.0
 20
395.0
 11
453.0
 21
395.0
 97
        0
 75
     0
 76
     1
 98
        1
 10
453.0
 20
395.0
1001
TSA_
1071
        1
1071
       -1
1071
        9
1071
      125
1071
        0
1004

1040
0.0
1071
       16
  0
INSERT
  5
326
330
2FC
100
AcDbEntity
  8
A--L1---
100
AcDbBlockReference
  2
N2DUM$2
 10
453.0
 20
395.0
 30
0.0
  0
LWPOLYLINE
  5
327
330
2FC
100
AcDbEntity
  8
A--L1---
  6
DASHED2
 62
     1
 48
400.0
100
AcDbPolyline
 90
        4
 70
     1
 43
0.0
 10
453.0
 20
395.0
 10
453.0
 20
365.0
 10
0.0
 20
365.0
 10
0.0
 20
395.0
1001
TSA_
1071
        1
1071
       -1
1071
        9
1071
      127
1071
        0
1004

1040
0.0
1071
       11
  0
HATCH
  5
328
330
2FC
100
AcDbEntity
  8
A--L1---
 62
     3
100
AcDbHatch
 10
0.0
 20
0.0
 30
0.0
210
0.0
220
0.0
230
1.0
  2
SOLID
 70
     1
 71
     1
 91
        1
 92
        1
 93
        4
 72
     1
 10
453.0
 20
395.0
 11
453.0
 21
365.0
 72
     1
 10
453.0
 20
365.0
 11
0.0
 21
365.0
 72
     1
 10
0.0
 20
365.0
 11
0.0
 21
395.0
 72
     1
 10
0.0
 20
395.0
 11
453.0
 21
395.0
 97
        0
 75
     0
 76
     1
 98
        1
 10
453.0
 20
395.0
1001
TSA_
1071
        1
1071
       -1
1071
        9
1071
      127
1071
        0
1004

1040
0.0
1071
       11
  0
LWPOLYLINE
  5
329
330
2FC
100
AcDbEntity
  8
A--L1---
  6
Continuous
 62
     2
 48
400.0
100
AcDbPolyline
 90
        2
 70
     0
 43
0.0
 10
453.0
 20
365.0
 10
0.0
 20
365.0
1001
TSA_
1071
        1
1071
       -1
1071
        8
1071
      125
1071
        0
1004

1040
0.0
1071
        9
  0
INSERT
  5
32A
330
2FC
100
AcDbEntity
  8
A--L1---
100
AcDbBlockReference
  2
N2DUM$2
 10
204.0
 20
40.0
 30
0.0
  0
LWPOLYLINE
  5
32B
330
2FC
100
AcDbEntity
  8
A--L1---
  6
Continuous
 62
     1
 48
400.0
100
AcDbPolyline
 90
        4
 70
     1
 43
0.0
 10
204.0
 20
40.0
 10
204.0
 20
74.0
 10
249.0
 20
74.0
 10
249.0
 20
40.0
1001
TSA_
1071
        1
1071
       -1
1071
        8
1071
       29
1071
        0
1004

1040
0.0
1071
        1
  0
LWPOLYLINE
  5
32C
330
2FC
100
AcDbEntity
  8
A--L1---
  6
Continuous
 62
     5
 48
400.0
100
AcDbPolyline
 90
        3
 70
     0
 43
0.0
 10
240.0
 20
75.0
 10
240.0
 20
-78.0
 10
430.0
 20
-78.0
1001
TSA_
1071
        1
1071
       -1
1071
        8
1071
      255
1071
        0
1004

1040
0.0
1071
        5
  0
LWPOLYLINE
  5
32D
330
2FC
100
AcDbEntity
  8
A--L1---
  6
DASHDOT2
 62
     1
 48
400.0
100
AcDbPolyline
 90
        2
 70
     1
 43
0.0
 10
242.0
 20
74.99999964994971
 42
1.0
 10
238.0
 20
75.00000035005029
 42
1.0
1001
TSA_
1071
        1
1071
       -1
1071
        9
1071
      125
1071
        0
1004

1040
0.0
1071
       34
  0
HATCH
  5
32E
330
2FC
100
AcDbEntity
  8
A--L1---
 62
     1
100
AcDbHatch
 10
0.0
 20
0.0
 30
0.0
210
0.0
220
0.0
230
1.0
  2
SOLID
 70
     1
 71
     1
 91
        1
 92
        1
 93
        2
 72
     2
 10
240.0
 20
75.0
 40
2.0
 50
359.9999899717978
 51
539.9999899717978
 73
     1
 72
     2
 10
240.0
 20
75.0
 40
2.0
 50
179.9999899717978
 51
359.9999899717978
 73
     1
 97
        0
 75
     0
 76
     1
 98
        1
 10
240.0
 20
75.0
1001
TSA_
1071
        1
1071
       -1
1071
        9
1071
      125
1071
        0
1004

1040
0.0
1071
       34
  0
INSERT
  5
32F
330
2FC
100
AcDbEntity
  8
A--L1---
100
AcDbBlockReference
  2
N2DUM$2
 10
240.0
 20
75.0
 30
0.0
  0
LWPOLYLINE
  5
330
330
2FC
100
AcDbEntity
  8
A--L1---
  6
Continuous
 62
     2
 48
400.0
100
AcDbPolyline
 90
        2
 70
     1
 43
0.0
 10
242.0
 20
74.99999964994971
 42
1.0
 10
238.0
 20
75.00000035005029
 42
1.0
1001
TSA_
1071
        1
1071
       -1
1071
        8
1071
      125
1071
        0
1004

1040
0.0
1071
        7
  0
LWPOLYLINE
  5
331
330
2FC
100
AcDbEntity
  8
A--L1---
  6
Continuous
 62
     5
 48
400.0
100
AcDbPolyline
 90
        3
 70
     0
 43
0.0
 10
226.5
 20
28.0
 10
226.5
 20
-23.0
 10
-65.0
 20
-23.0
1001
TSA_
1071
        1
1071
       -1
1071
        8
1071
      255
1071
        0
1004

1040
0.0
1071
        5
  0
LWPOLYLINE
  5
332
330
2FC
100
AcDbEntity
  8
A--L1---
  6
DASHDOT2
 62
     1
 48
400.0
100
AcDbPolyline
 90
        2
 70
     1
 43
0.0
 10
228.5
 20
27.99999964994971
 42
1.0
 10
224.5
 20
28.00000035005029
 42
1.0
1001
TSA_
1071
        1
1071
       -1
1071
        9
1071
      125
1071
        0
1004

1040
0.0
1071
       34
  0
HATCH
  5
333
330
2FC
100
AcDbEntity
  8
A--L1---
 62
     1
100
AcDbHatch
 10
0.0
 20
0.0
 30
0.0
210
0.0
220
0.0
230
1.0
  2
SOLID
 70
     1
 71
     1
 91
        1
 92
        1
 93
        2
 72
     2
 10
226.5
 20
28.0
 40
2.0
 50
359.9999899717978
 51
539.9999899717978
 73
     1
 72
     2
 10
226.5
 20
28.0
 40
2.0
 50
179.9999899717978
 51
359.9999899717978
 73
     1
 97
        0
 75
     0
 76
     1
 98
        1
 10
226.5
 20
28.0
1001
TSA_
1071
        1
1071
       -1
1071
        9
1071
      125
1071
        0
1004

1040
0.0
1071
       34
  0
INSERT
  5
334
330
2FC
100
AcDbEntity
  8
A--L1---
100
AcDbBlockReference
  2
N2DUM$2
 10
226.5
 20
28.0
 30
0.0
  0
LWPOLYLINE
  5
335
330
2FC
100
AcDbEntity
  8
A--L1---
  6
Continuous
 62
     2
 48
400.0
100
AcDbPolyline
 90
        2
 70
     1
 43
0.0
 10
228.5
 20
27.99999964994971
 42
1.0
 10
224.5
 20
28.00000035005029
 42
1.0
1001
TSA_
1071
        1
1071
       -1
1071
        8
1071
      125
1071
        0
1004

1040
0.0
1071
        7
  0
LWPOLYLINE
  5
336
330
2FC
100
AcDbEntity
  8
A--L1---
  6
DASHDOT2
 62
     2
 48
400.0
100
AcDbPolyline
 90
        2
 70
     0
 43
0.0
 10
0.0
 20
100.0
 10
0.0
 20
3.0
1001
TSA_
1071
        1
1071
       -1
1071
        8
1071
      255
1071
        0
1004

1040
0.0
1071
       32
  0
LWPOLYLINE
  5
337
330
2FC
100
AcDbEntity
  8
A--L1---
  6
DASHDOT2
 62
     2
 48
400.0
100
AcDbPolyline
 90
        2
 70
     0
 43
0.0
 10
453.0
 20
100.0
 10
453.0
 20
3.0
1001
TSA_
1071
        1
1071
       -1
1071
        8
1071
      255
1071
        0
1004

1040
0.0
1071
       32
  0
INSERT
  5
338
330
2FC
100
AcDbEntity
  8
A--L1---
100
AcDbBlockReference
  2
N2DUM$2
 10
0.0
 20
193.0
 30
0.0
  0
LWPOLYLINE
  5
339
330
2FC
100
AcDbEntity
  8
A--L1---
  6
Continuous
 62
     1
 48
400.0
100
AcDbPolyline
 90
        4
 70
     0
 43
0.0
 10
0.0
 20
193.0
 10
221.5
 20
193.0
 10
221.5
 20
199.0
 10
0.0
 20
199.0
1001
TSA_
1071
        1
1071
       -1
1071
        8
1071
      125
1071
        0
1004

1040
0.0
1071
       10
  0
INSERT
  5
33A
330
2FC
100
AcDbEntity
  8
A--L1---
100
AcDbBlockReference
  2
N2DUM$2
 10
186.5
 20
199.0
 30
0.0
  0
LWPOLYLINE
  5
33B
330
2FC
100
AcDbEntity
  8
A--L1---
  6
Continuous
 62
     1
 48
400.0
100
AcDbPolyline
 90
        4
 70
     1
 43
0.0
 10
186.5
 20
199.0
 10
186.5
 20
205.0
 10
266.5
 20
205.0
 10
266.5
 20
199.0
1001
TSA_
1071
        1
1071
       -1
1071
        8
1071
      125
1071
        0
1004

1040
0.0
1071
       10
  0
INSERT
  5
33C
330
2FC
100
AcDbEntity
  8
A--L1---
100
AcDbBlockReference
  2
N2DUM$2
 10
0.0
 20
28.0
 30
0.0
  0
LWPOLYLINE
  5
33D
330
2FC
100
AcDbEntity
  8
A--L1---
  6
Continuous
 62
     1
 48
400.0
100
AcDbPolyline
 90
        4
 70
     0
 43
0.0
 10
0.0
 20
28.0
 10
453.0
 20
28.0
 10
453.0
 20
34.0
 10
0.0
 20
34.0
1001
TSA_
1071
        1
1071
       -1
1071
        8
1071
      125
1071
        0
1004

1040
0.0
1071
       10
  0
INSERT
  5
33E
330
2FC
100
AcDbEntity
  8
A--L1---
100
AcDbBlockReference
  2
N2DUM$2
 10
186.5
 20
34.0
 30
0.0
  0
LWPOLYLINE
  5
33F
330
2FC
100
AcDbEntity
  8
A--L1---
  6
Continuous
 62
     1
 48
400.0
100
AcDbPolyline
 90
        4
 70
     1
 43
0.0
 10
186.5
 20
34.0
 10
186.5
 20
40.0
 10
266.5
 20
40.0
 10
266.5
 20
34.0
1001
TSA_
1071
        1
1071
       -1
1071
        8
1071
      125
1071
        0
1004

1040
0.0
1071
       10
  0
INSERT
  5
340
330
2FC
100
AcDbEntity
  8
A--L1---
100
AcDbBlockReference
  2
N2DUM$2
 10
453.0
 20
199.0
 30
0.0
  0
LWPOLYLINE
  5
341
330
2FC
100
AcDbEntity
  8
A--L1---
  6
Continuous
 62
     1
 48
400.0
100
AcDbPolyline
 90
        4
 70
     0
 43
0.0
 10
453.0
 20
199.0
 10
231.5
 20
199.0
 10
231.5
 20
193.0
 10
453.0
 20
193.0
1001
TSA_
1071
        1
1071
       -1
1071
        8
1071
      125
1071
        0
1004

1040
0.0
1071
       10
  0
ENDBLK
  5
343
330
2FC
100
AcDbEntity
  8
0
100
AcDbBlockEnd
  0
BLOCK
  5
2FF
330
2FD
100
AcDbEntity
  8
0
100
AcDbBlockBegin
  2
NSCHROEF$2
 70
     0
 10
0.0
 20
0.0
 30
0.0
  3
NSCHROEF$2
  1

  0
LWPOLYLINE
  5
2FE
330
2FD
100
AcDbEntity
  8
A--L1---
  6
Continuous
 62
     5
 48
400.0
100
AcDbPolyline
 90
       12
 70
     0
 43
0.0
 10
4.0
 20
2.0
 10
8.0
 20
-2.0
 10
12.0
 20
2.0
 10
16.0
 20
-2.0
 10
20.0
 20
2.0
 10
24.0
 20
-2.0
 10
28.0
 20
2.0
 10
30.0
 20
0.0
 10
0.0
 20
0.0
 10
-2.0
 20
2.5
 10
-2.0
 20
-2.5
 10
0.0
 20
0.0
1001
TSA_
1071
        1
1071
       -1
1071
        8
1071
      255
1071
        0
1004

1040
0.0
1071
        5
  0
ENDBLK
  5
300
330
2FD
100
AcDbEntity
  8
0
100
AcDbBlockEnd
  0
BLOCK
  5
30B
330
303
100
AcDbEntity
  8
0
100
AcDbBlockBegin
  2
NBOLBENAM$2
 70
     0
 10
0.0
 20
0.0
 30
0.0
  3
NBOLBENAM$2
  1

  0
LWPOLYLINE
  5
304
330
303
100
AcDbEntity
  8
A--L1---
  6
DASHDOT2
 62
     1
 48
400.0
100
AcDbPolyline
 90
        2
 70
     1
 43
0.0
 10
1.999999999999969
 20
-0.0000003500502928
 42
1.0
 10
-1.999999999999969
 20
0.0000003500502928
 42
1.0
1001
TSA_
1071
        1
1071
       -1
1071
        9
1071
      125
1071
        0
1004

1040
0.0
1071
       34
  0
HATCH
  5
305
330
303
100
AcDbEntity
  8
A--L1---
 62
     1
100
AcDbHatch
 10
0.0
 20
0.0
 30
0.0
210
0.0
220
0.0
230
1.0
  2
SOLID
 70
     1
 71
     1
 91
        1
 92
        1
 93
        2
 72
     2
 10
0.0
 20
0.0
 40
2.0
 50
359.9999899717978
 51
539.9999899717978
 73
     1
 72
     2
 10
0.0
 20
0.0
 40
2.0
 50
179.9999899717978
 51
359.9999899717978
 73
     1
 97
        0
 75
     0
 76
     1
 98
        1
 10
1.999999999999969
 20
-0.0000003500502928
1001
TSA_
1071
        1
1071
       -1
1071
        9
1071
      125
1071
        0
1004

1040
0.0
1071
       34
  0
INSERT
  5
309
330
303
100
AcDbEntity
  8
A--L1---
100
AcDbBlockReference
  2
N2DUM$2
 10
1.999999999999969
 20
-0.0000003500502928
 30
0.0
  0
LWPOLYLINE
  5
30A
330
303
100
AcDbEntity
  8
A--L1---
  6
Continuous
 62
     2
 48
400.0
100
AcDbPolyline
 90
        2
 70
     1
 43
0.0
 10
1.999999999999969
 20
-0.0000003500502928
 42
1.0
 10
-1.999999999999969
 20
0.0000003500502928
 42
1.0
1001
TSA_
1071
        1
1071
       -1
1071
        8
1071
      125
1071
        0
1004

1040
0.0
1071
        7
  0
ENDBLK
  5
30C
330
303
100
AcDbEntity
  8
0
100
AcDbBlockEnd
  0
BLOCK
  5
307
330
306
100
AcDbEntity
  8
0
100
AcDbBlockBegin
  2
N2DUM$2
 70
     0
 10
0.0
 20
0.0
 30
0.0
  3
N2DUM$2
  1

  0
ENDBLK
  5
308
330
306
100
AcDbEntity
  8
0
100
AcDbBlockEnd
  0
BLOCK
  5
3A5
330
34C
100
AcDbEntity
  8
0
100
AcDbBlockBegin
  2
HZSD203$2
 70
     0
 10
0.0
 20
0.0
 30
0.0
  3
HZSD203$2
  1

  0
INSERT
  5
39F
330
34C
100
AcDbEntity
  8
A--L1---
100
AcDbBlockReference
  2
HDET1-203$2
 10
335.0
 20
607.5
 30
0.0
  0
LWPOLYLINE
  5
3A0
330
34C
100
AcDbEntity
  8
A--L107-
  6
Continuous
 62
     1
 48
400.0
100
AcDbPolyline
 90
        2
 70
     0
 43
0.0
 10
1000.0
 20
295.0
 10
100.0
 20
295.0
1001
TSA_
1071
        1
1071
        2
1071
        8
1071
      255
1071
        0
1004

1040
0.0
1071
        1
  0
LWPOLYLINE
  5
3A1
330
34C
100
AcDbEntity
  8
A--L107-
  6
Continuous
 62
     1
 48
400.0
100
AcDbPolyline
 90
        2
 70
     0
 43
0.0
 10
1000.0
 20
172.5
 10
100.0
 20
172.5
1001
TSA_
1071
        1
1071
        3
1071
        8
1071
      255
1071
        0
1004

1040
0.0
1071
        1
  0
TEXT
  5
3A2
330
34C
100
AcDbEntity
  8
A--T1---
 62
     3
100
AcDbText
 10
120.0
 20
215.0
 30
0.0
 40
14.0
  1
Detail: 203
  7
TSA-7
100
AcDbText
1001
TSA_
1071
        1
1071
        4
1071
        6
1071
      127
1071
        0
1004

1040
0.0
1071
        7
  0
LWPOLYLINE
  5
3A3
330
34C
100
AcDbEntity
  8
A--L98--
  6
Continuous
 62
     1
 48
400.0
100
AcDbPolyline
 90
        4
 70
     1
 43
0.0
 10
0.0
 20
0.0
 10
0.0
 20
1485.0
 10
1050.0
 20
1485.0
 10
1050.0
 20
0.0
1001
TSA_
1071
        1
1071
        5
1071
        8
1071
      255
1071
        0
1004

1040
0.0
1071
        1
  0
LWPOLYLINE
  5
3A4
330
34C
100
AcDbEntity
  8
A--L98--
  6
Continuous
 62
     1
 48
400.0
100
AcDbPolyline
 90
        4
 70
     1
 43
0.0
 10
100.0
 20
172.5
 10
100.0
 20
1435.0
 10
1000.0
 20
1435.0
 10
1000.0
 20
172.5
1001
TSA_
1071
        1
1071
        6
1071
        8
1071
      255
1071
        0
1004

1040
0.0
1071
        1
  0
ENDBLK
  5
3A6
330
34C
100
AcDbEntity
  8
0
100
AcDbBlockEnd
  0
BLOCK
  5
39D
330
34D
100
AcDbEntity
  8
0
100
AcDbBlockBegin
  2
HDET1-203$2
 70
     0
 10
0.0
 20
0.0
 30
0.0
  3
HDET1-203$2
  1

  0
INSERT
  5
352
330
34D
100
AcDbEntity
  8
A--L1---
100
AcDbBlockReference
  2
HSCHROEF$2
 10
206.5
 20
193.0
 30
0.0
 50
89.99999999742762
1001
TSA_
1071
        1
1071
       -1
1071
        2
1071
      255
1071
        0
1004

1040
0.0
  0
INSERT
  5
353
330
34D
100
AcDbEntity
  8
A--L1---
100
AcDbBlockReference
  2
HSCHROEF$2
 10
246.5
 20
193.0
 30
0.0
 42
-1.0
 50
89.99999999742762
1001
TSA_
1071
        1
1071
       -1
1071
        2
1071
      255
1071
        0
1004

1040
0.0
  0
INSERT
  5
35E
330
34D
100
AcDbEntity
  8
A--L1---
100
AcDbBlockReference
  2
HBOLBENAM$2
 10
240.0
 20
222.0
 30
0.0
1001
TSA_
1071
        1
1071
       -1
1071
        2
1071
      255
1071
        0
1004

1040
0.0
  0
INSERT
  5
35F
330
34D
100
AcDbEntity
  8
A--L1---
100
AcDbBlockReference
  2
HBOLBENAM$2
 10
240.0
 20
203.5
 30
0.0
1001
TSA_
1071
        1
1071
       -1
1071
        2
1071
      255
1071
        0
1004

1040
0.0
  0
INSERT
  5
360
330
34D
100
AcDbEntity
  8
A--L1---
100
AcDbBlockReference
  2
HBOLBENAM$2
 10
240.0
 20
199.0
 30
0.0
1001
TSA_
1071
        1
1071
       -1
1071
        2
1071
      255
1071
        0
1004

1040
0.0
  0
INSERT
  5
361
330
34D
100
AcDbEntity
  8
A--L1---
100
AcDbBlockReference
  2
HSCHROEF$2
 10
226.5
 20
28.0
 30
0.0
 50
89.99999999742762
1001
TSA_
1071
        1
1071
       -1
1071
        2
1071
      255
1071
        0
1004

1040
0.0
  0
INSERT
  5
362
330
34D
100
AcDbEntity
  8
A--L1---
100
AcDbBlockReference
  2
HBOLBENAM$2
 10
240.0
 20
57.0
 30
0.0
1001
TSA_
1071
        1
1071
       -1
1071
        2
1071
      255
1071
        0
1004

1040
0.0
  0
INSERT
  5
363
330
34D
100
AcDbEntity
  8
A--L1---
100
AcDbBlockReference
  2
HBOLBENAM$2
 10
240.0
 20
38.5
 30
0.0
1001
TSA_
1071
        1
1071
       -1
1071
        2
1071
      255
1071
        0
1004

1040
0.0
  0
INSERT
  5
364
330
34D
100
AcDbEntity
  8
A--L1---
100
AcDbBlockReference
  2
HBOLBENAM$2
 10
240.0
 20
34.0
 30
0.0
1001
TSA_
1071
        1
1071
       -1
1071
        2
1071
      255
1071
        0
1004

1040
0.0
  0
LWPOLYLINE
  5
365
330
34D
100
AcDbEntity
  8
A--L1---
  6
Continuous
 62
     1
 48
400.0
100
AcDbPolyline
 90
        4
 70
     1
 43
0.0
 10
191.5
 20
205.0
 10
191.5
 20
239.0
 10
261.5
 20
239.0
 10
261.5
 20
205.0
1001
TSA_
1071
        1
1071
       -1
1071
        9
1071
      121
1071
        0
1004

1040
0.0
1071
       49
  0
HATCH
  5
366
330
34D
100
AcDbEntity
  8
A--L1---
 62
     5
100
AcDbHatch
 10
0.0
 20
0.0
 30
0.0
210
0.0
220
0.0
230
1.0
  2
ANSI31
 70
     0
 71
     1
 91
        1
 92
        1
 93
        4
 72
     1
 10
191.5
 20
205.0
 11
191.5
 21
239.0
 72
     1
 10
191.5
 20
239.0
 11
261.5
 21
239.0
 72
     1
 10
261.5
 20
239.0
 11
261.5
 21
205.0
 72
     1
 10
261.5
 20
205.0
 11
191.5
 21
205.0
 97
        0
 75
     0
 76
     1
 52
90.00001494311726
 41
75.0
 77
     0
 78
     1
 53
135.0000149431173
 43
0.0
 44
0.0
 45
-168.3797583554777
 46
-168.3798461846041
 79
     0
 98
        1
 10
191.5
 20
205.0
1001
TSA_
1071
        1
1071
       -1
1071
        9
1071
      121
1071
        0
1004

1040
0.0
1071
       49
  0
INSERT
  5
367
330
34D
100
AcDbEntity
  8
A--L1---
100
AcDbBlockReference
  2
H2DUM$2
 10
191.5
 20
205.0
 30
0.0
  0
LWPOLYLINE
  5
368
330
34D
100
AcDbEntity
  8
A--L1---
  6
Continuous
 62
     1
 48
400.0
100
AcDbPolyline
 90
        4
 70
     1
 43
0.0
 10
191.5
 20
205.0
 10
191.5
 20
239.0
 10
261.5
 20
239.0
 10
261.5
 20
205.0
1001
TSA_
1071
        1
1071
       -1
1071
        8
1071
       29
1071
        0
1004

1040
0.0
1071
        1
  0
LWPOLYLINE
  5
369
330
34D
100
AcDbEntity
  8
A--L1---
  6
Continuous
 62
     5
 48
400.0
100
AcDbPolyline
 90
        3
 70
     0
 43
0.0
 10
240.0
 20
240.0
 10
240.0
 20
87.0
 10
430.0
 20
87.0
1001
TSA_
1071
        1
1071
       -1
1071
        8
1071
      255
1071
        0
1004

1040
0.0
1071
        5
  0
LWPOLYLINE
  5
36A
330
34D
100
AcDbEntity
  8
A--L1---
  6
DASHDOT2
 62
     1
 48
400.0
100
AcDbPolyline
 90
        2
 70
     1
 43
0.0
 10
242.0
 20
239.9999996499497
 42
1.0
 10
238.0
 20
240.0000003500503
 42
1.0
1001
TSA_
1071
        1
1071
       -1
1071
        9
1071
      125
1071
        0
1004

1040
0.0
1071
       34
  0
HATCH
  5
36B
330
34D
100
AcDbEntity
  8
A--L1---
 62
     1
100
AcDbHatch
 10
0.0
 20
0.0
 30
0.0
210
0.0
220
0.0
230
1.0
  2
SOLID
 70
     1
 71
     1
 91
        1
 92
        1
 93
        2
 72
     2
 10
240.0
 20
240.0
 40
2.0
 50
359.9999899717978
 51
539.9999899717978
 73
     1
 72
     2
 10
240.0
 20
240.0
 40
2.0
 50
179.9999899717978
 51
359.9999899717978
 73
     1
 97
        0
 75
     0
 76
     1
 98
        1
 10
240.0
 20
240.0
1001
TSA_
1071
        1
1071
       -1
1071
        9
1071
      125
1071
        0
1004

1040
0.0
1071
       34
  0
INSERT
  5
36C
330
34D
100
AcDbEntity
  8
A--L1---
100
AcDbBlockReference
  2
H2DUM$2
 10
240.0
 20
240.0
 30
0.0
  0
LWPOLYLINE
  5
36D
330
34D
100
AcDbEntity
  8
A--L1---
  6
Continuous
 62
     2
 48
400.0
100
AcDbPolyline
 90
        2
 70
     1
 43
0.0
 10
242.0
 20
239.9999996499497
 42
1.0
 10
238.0
 20
240.0000003500503
 42
1.0
1001
TSA_
1071
        1
1071
       -1
1071
        8
1071
      125
1071
        0
1004

1040
0.0
1071
        7
  0
LWPOLYLINE
  5
36E
330
34D
100
AcDbEntity
  8
A--L1---
  6
Continuous
 62
     5
 48
400.0
100
AcDbPolyline
 90
        3
 70
     0
 43
0.0
 10
206.5
 20
193.0
 10
206.5
 20
142.0
 10
-65.0
 20
142.0
1001
TSA_
1071
        1
1071
       -1
1071
        8
1071
      255
1071
        0
1004

1040
0.0
1071
        5
  0
LWPOLYLINE
  5
36F
330
34D
100
AcDbEntity
  8
A--L1---
  6
DASHDOT2
 62
     1
 48
400.0
100
AcDbPolyline
 90
        2
 70
     1
 43
0.0
 10
208.5
 20
192.9999996499497
 42
1.0
 10
204.5
 20
193.0000003500503
 42
1.0
1001
TSA_
1071
        1
1071
       -1
1071
        9
1071
      125
1071
        0
1004

1040
0.0
1071
       34
  0
HATCH
  5
370
330
34D
100
AcDbEntity
  8
A--L1---
 62
     1
100
AcDbHatch
 10
0.0
 20
0.0
 30
0.0
210
0.0
220
0.0
230
1.0
  2
SOLID
 70
     1
 71
     1
 91
        1
 92
        1
 93
        2
 72
     2
 10
206.5
 20
193.0
 40
2.0
 50
359.9999899717978
 51
539.9999899717978
 73
     1
 72
     2
 10
206.5
 20
193.0
 40
2.0
 50
179.9999899717978
 51
359.9999899717978
 73
     1
 97
        0
 75
     0
 76
     1
 98
        1
 10
206.5
 20
193.0
1001
TSA_
1071
        1
1071
       -1
1071
        9
1071
      125
1071
        0
1004

1040
0.0
1071
       34
  0
INSERT
  5
371
330
34D
100
AcDbEntity
  8
A--L1---
100
AcDbBlockReference
  2
H2DUM$2
 10
206.5
 20
193.0
 30
0.0
  0
LWPOLYLINE
  5
372
330
34D
100
AcDbEntity
  8
A--L1---
  6
Continuous
 62
     2
 48
400.0
100
AcDbPolyline
 90
        2
 70
     1
 43
0.0
 10
208.5
 20
192.9999996499497
 42
1.0
 10
204.5
 20
193.0000003500503
 42
1.0
1001
TSA_
1071
        1
1071
       -1
1071
        8
1071
      125
1071
        0
1004

1040
0.0
1071
        7
  0
LWPOLYLINE
  5
373
330
34D
100
AcDbEntity
  8
A--L1---
  6
DASHED2
 62
     1
 48
400.0
100
AcDbPolyline
 90
        4
 70
     1
 43
0.0
 10
0.0
 20
245.0
 10
0.0
 20
365.0
 10
453.0
 20
365.0
 10
453.0
 20
245.0
1001
TSA_
1071
        1
1071
       -1
1071
        9
1071
      121
1071
        0
1004

1040
0.0
1071
       13
  0
HATCH
  5
374
330
34D
100
AcDbEntity
  8
A--L1---
 62
     5
100
AcDbHatch
 10
0.0
 20
0.0
 30
0.0
210
0.0
220
0.0
230
1.0
  2
ANSI31
 70
     0
 71
     1
 91
        1
 92
        1
 93
        4
 72
     1
 10
0.0
 20
245.0
 11
0.0
 21
365.0
 72
     1
 10
0.0
 20
365.0
 11
453.0
 21
365.0
 72
     1
 10
453.0
 20
365.0
 11
453.0
 21
245.0
 72
     1
 10
453.0
 20
245.0
 11
0.0
 21
245.0
 97
        0
 75
     0
 76
     1
 52
0.0
 41
100.0
 77
     0
 78
     1
 53
45.0
 43
0.0
 44
0.0
 45
-224.5064030267288
 46
224.5064030267288
 79
     0
 98
        1
 10
0.0
 20
245.0
1001
TSA_
1071
        1
1071
       -1
1071
        9
1071
      121
1071
        0
1004

1040
0.0
1071
       13
  0
LWPOLYLINE
  5
375
330
34D
100
AcDbEntity
  8
A--L1---
  6
DASHED2
 62
     1
 48
400.0
100
AcDbPolyline
 90
        4
 70
     1
 43
0.0
 10
0.0
 20
245.0
 10
0.0
 20
365.0
 10
453.0
 20
365.0
 10
453.0
 20
245.0
1001
TSA_
1071
        1
1071
       -1
1071
        9
1071
      121
1071
        0
1004

1040
0.0
1071
       20
  0
HATCH
  5
376
330
34D
100
AcDbEntity
  8
A--L1---
 62
     5
100
AcDbHatch
 10
0.0
 20
0.0
 30
0.0
210
0.0
220
0.0
230
1.0
  2
ANSI31
 70
     0
 71
     1
 91
        1
 92
        1
 93
        4
 72
     1
 10
0.0
 20
245.0
 11
0.0
 21
365.0
 72
     1
 10
0.0
 20
365.0
 11
453.0
 21
365.0
 72
     1
 10
453.0
 20
365.0
 11
453.0
 21
245.0
 72
     1
 10
453.0
 20
245.0
 11
0.0
 21
245.0
 97
        0
 75
     0
 76
     1
 52
90.00001494311726
 41
100.0
 77
     0
 78
     1
 53
135.0000149431173
 43
0.0
 44
0.0
 45
-224.5063444739703
 46
-224.5064615794721
 79
     0
 98
        1
 10
0.0
 20
245.0
1001
TSA_
1071
        1
1071
       -1
1071
        9
1071
      121
1071
        0
1004

1040
0.0
1071
       20
  0
INSERT
  5
377
330
34D
100
AcDbEntity
  8
A--L1---
100
AcDbBlockReference
  2
H2DUM$2
 10
0.0
 20
245.0
 30
0.0
  0
LWPOLYLINE
  5
378
330
34D
100
AcDbEntity
  8
A--L1---
  6
Continuous
 62
     1
 48
400.0
100
AcDbPolyline
 90
        2
 70
     0
 43
0.0
 10
0.0
 20
245.0
 10
453.0
 20
245.0
1001
TSA_
1071
        1
1071
       -1
1071
        8
1071
      121
1071
        0
1004

1040
0.0
1071
       10
  0
LWPOLYLINE
  5
379
330
34D
100
AcDbEntity
  8
A--L1---
  6
Continuous
 62
     1
 48
400.0
100
AcDbPolyline
 90
        2
 70
     0
 43
0.0
 10
0.0
 20
365.0
 10
453.0
 20
365.0
1001
TSA_
1071
        1
1071
       -1
1071
        8
1071
      121
1071
        0
1004

1040
0.0
1071
       10
  0
LWPOLYLINE
  5
37A
330
34D
100
AcDbEntity
  8
A--L1---
  6
DASHDOT2
 62
     2
 48
400.0
100
AcDbPolyline
 90
        2
 70
     0
 43
0.0
 10
0.0
 20
420.0
 10
0.0
 20
168.0
1001
TSA_
1071
        1
1071
       -1
1071
        8
1071
      255
1071
        0
1004

1040
0.0
1071
       32
  0
LWPOLYLINE
  5
37B
330
34D
100
AcDbEntity
  8
A--L1---
  6
DASHDOT2
 62
     2
 48
400.0
100
AcDbPolyline
 90
        2
 70
     0
 43
0.0
 10
453.0
 20
420.0
 10
453.0
 20
168.0
1001
TSA_
1071
        1
1071
       -1
1071
        8
1071
      255
1071
        0
1004

1040
0.0
1071
       32
  0
LWPOLYLINE
  5
37C
330
34D
100
AcDbEntity
  8
A--L1---
  6
DASHDOT2
 62
     2
 48
400.0
100
AcDbPolyline
 90
        2
 70
     0
 43
0.0
 10
-25.0
 20
395.0
 10
478.0
 20
395.0
1001
TSA_
1071
        1
1071
       -1
1071
        8
1071
      255
1071
        0
1004

1040
0.0
1071
       32
  0
LWPOLYLINE
  5
37D
330
34D
100
AcDbEntity
  8
A--L1---
  6
DASHED2
 62
     1
 48
400.0
100
AcDbPolyline
 90
        4
 70
     1
 43
0.0
 10
453.0
 20
395.0
 10
453.0
 20
365.0
 10
0.0
 20
365.0
 10
0.0
 20
395.0
1001
TSA_
1071
        1
1071
       -1
1071
        9
1071
      125
1071
        0
1004

1040
0.0
1071
       16
  0
HATCH
  5
37E
330
34D
100
AcDbEntity
  8
A--L1---
 62
   253
100
AcDbHatch
 10
0.0
 20
0.0
 30
0.0
210
0.0
220
0.0
230
1.0
  2
SOLID
 70
     1
 71
     1
 91
        1
 92
        1
 93
        4
 72
     1
 10
453.0
 20
395.0
 11
453.0
 21
365.0
 72
     1
 10
453.0
 20
365.0
 11
0.0
 21
365.0
 72
     1
 10
0.0
 20
365.0
 11
0.0
 21
395.0
 72
     1
 10
0.0
 20
395.0
 11
453.0
 21
395.0
 97
        0
 75
     0
 76
     1
 98
        1
 10
453.0
 20
395.0
1001
TSA_
1071
        1
1071
       -1
1071
        9
1071
      125
1071
        0
1004

1040
0.0
1071
       16
  0
INSERT
  5
37F
330
34D
100
AcDbEntity
  8
A--L1---
100
AcDbBlockReference
  2
H2DUM$2
 10
453.0
 20
395.0
 30
0.0
  0
LWPOLYLINE
  5
380
330
34D
100
AcDbEntity
  8
A--L1---
  6
DASHED2
 62
     1
 48
400.0
100
AcDbPolyline
 90
        4
 70
     1
 43
0.0
 10
453.0
 20
395.0
 10
453.0
 20
365.0
 10
0.0
 20
365.0
 10
0.0
 20
395.0
1001
TSA_
1071
        1
1071
       -1
1071
        9
1071
      127
1071
        0
1004

1040
0.0
1071
       11
  0
HATCH
  5
381
330
34D
100
AcDbEntity
  8
A--L1---
 62
     3
100
AcDbHatch
 10
0.0
 20
0.0
 30
0.0
210
0.0
220
0.0
230
1.0
  2
SOLID
 70
     1
 71
     1
 91
        1
 92
        1
 93
        4
 72
     1
 10
453.0
 20
395.0
 11
453.0
 21
365.0
 72
     1
 10
453.0
 20
365.0
 11
0.0
 21
365.0
 72
     1
 10
0.0
 20
365.0
 11
0.0
 21
395.0
 72
     1
 10
0.0
 20
395.0
 11
453.0
 21
395.0
 97
        0
 75
     0
 76
     1
 98
        1
 10
453.0
 20
395.0
1001
TSA_
1071
        1
1071
       -1
1071
        9
1071
      127
1071
        0
1004

1040
0.0
1071
       11
  0
LWPOLYLINE
  5
382
330
34D
100
AcDbEntity
  8
A--L1---
  6
Continuous
 62
     2
 48
400.0
100
AcDbPolyline
 90
        2
 70
     0
 43
0.0
 10
453.0
 20
365.0
 10
0.0
 20
365.0
1001
TSA_
1071
        1
1071
       -1
1071
        8
1071
      125
1071
        0
1004

1040
0.0
1071
        9
  0
LWPOLYLINE
  5
383
330
34D
100
AcDbEntity
  8
A--L1---
  6
Continuous
 62
     1
 48
400.0
100
AcDbPolyline
 90
        4
 70
     1
 43
0.0
 10
204.0
 20
40.0
 10
204.0
 20
74.0
 10
249.0
 20
74.0
 10
249.0
 20
40.0
1001
TSA_
1071
        1
1071
       -1
1071
        9
1071
      121
1071
        0
1004

1040
0.0
1071
       49
  0
HATCH
  5
384
330
34D
100
AcDbEntity
  8
A--L1---
 62
     5
100
AcDbHatch
 10
0.0
 20
0.0
 30
0.0
210
0.0
220
0.0
230
1.0
  2
ANSI31
 70
     0
 71
     1
 91
        1
 92
        1
 93
        4
 72
     1
 10
204.0
 20
40.0
 11
204.0
 21
74.0
 72
     1
 10
204.0
 20
74.0
 11
249.0
 21
74.0
 72
     1
 10
249.0
 20
74.0
 11
249.0
 21
40.0
 72
     1
 10
249.0
 20
40.0
 11
204.0
 21
40.0
 97
        0
 75
     0
 76
     1
 52
90.00001494311726
 41
75.0
 77
     0
 78
     1
 53
135.0000149431173
 43
0.0
 44
0.0
 45
-168.3797583554777
 46
-168.3798461846041
 79
     0
 98
        1
 10
204.0
 20
40.0
1001
TSA_
1071
        1
1071
       -1
1071
        9
1071
      121
1071
        0
1004

1040
0.0
1071
       49
  0
INSERT
  5
385
330
34D
100
AcDbEntity
  8
A--L1---
100
AcDbBlockReference
  2
H2DUM$2
 10
204.0
 20
40.0
 30
0.0
  0
LWPOLYLINE
  5
386
330
34D
100
AcDbEntity
  8
A--L1---
  6
Continuous
 62
     1
 48
400.0
100
AcDbPolyline
 90
        4
 70
     1
 43
0.0
 10
204.0
 20
40.0
 10
204.0
 20
74.0
 10
249.0
 20
74.0
 10
249.0
 20
40.0
1001
TSA_
1071
        1
1071
       -1
1071
        8
1071
       29
1071
        0
1004

1040
0.0
1071
        1
  0
LWPOLYLINE
  5
387
330
34D
100
AcDbEntity
  8
A--L1---
  6
Continuous
 62
     5
 48
400.0
100
AcDbPolyline
 90
        3
 70
     0
 43
0.0
 10
240.0
 20
75.0
 10
240.0
 20
-78.0
 10
430.0
 20
-78.0
1001
TSA_
1071
        1
1071
       -1
1071
        8
1071
      255
1071
        0
1004

1040
0.0
1071
        5
  0
LWPOLYLINE
  5
388
330
34D
100
AcDbEntity
  8
A--L1---
  6
DASHDOT2
 62
     1
 48
400.0
100
AcDbPolyline
 90
        2
 70
     1
 43
0.0
 10
242.0
 20
74.99999964994971
 42
1.0
 10
238.0
 20
75.00000035005029
 42
1.0
1001
TSA_
1071
        1
1071
       -1
1071
        9
1071
      125
1071
        0
1004

1040
0.0
1071
       34
  0
HATCH
  5
389
330
34D
100
AcDbEntity
  8
A--L1---
 62
     1
100
AcDbHatch
 10
0.0
 20
0.0
 30
0.0
210
0.0
220
0.0
230
1.0
  2
SOLID
 70
     1
 71
     1
 91
        1
 92
        1
 93
        2
 72
     2
 10
240.0
 20
75.0
 40
2.0
 50
359.9999899717978
 51
539.9999899717978
 73
     1
 72
     2
 10
240.0
 20
75.0
 40
2.0
 50
179.9999899717978
 51
359.9999899717978
 73
     1
 97
        0
 75
     0
 76
     1
 98
        1
 10
240.0
 20
75.0
1001
TSA_
1071
        1
1071
       -1
1071
        9
1071
      125
1071
        0
1004

1040
0.0
1071
       34
  0
INSERT
  5
38A
330
34D
100
AcDbEntity
  8
A--L1---
100
AcDbBlockReference
  2
H2DUM$2
 10
240.0
 20
75.0
 30
0.0
  0
LWPOLYLINE
  5
38B
330
34D
100
AcDbEntity
  8
A--L1---
  6
Continuous
 62
     2
 48
400.0
100
AcDbPolyline
 90
        2
 70
     1
 43
0.0
 10
242.0
 20
74.99999964994971
 42
1.0
 10
238.0
 20
75.00000035005029
 42
1.0
1001
TSA_
1071
        1
1071
       -1
1071
        8
1071
      125
1071
        0
1004

1040
0.0
1071
        7
  0
LWPOLYLINE
  5
38C
330
34D
100
AcDbEntity
  8
A--L1---
  6
Continuous
 62
     5
 48
400.0
100
AcDbPolyline
 90
        3
 70
     0
 43
0.0
 10
226.5
 20
28.0
 10
226.5
 20
-23.0
 10
-65.0
 20
-23.0
1001
TSA_
1071
        1
1071
       -1
1071
        8
1071
      255
1071
        0
1004

1040
0.0
1071
        5
  0
LWPOLYLINE
  5
38D
330
34D
100
AcDbEntity
  8
A--L1---
  6
DASHDOT2
 62
     1
 48
400.0
100
AcDbPolyline
 90
        2
 70
     1
 43
0.0
 10
228.5
 20
27.99999964994971
 42
1.0
 10
224.5
 20
28.00000035005029
 42
1.0
1001
TSA_
1071
        1
1071
       -1
1071
        9
1071
      125
1071
        0
1004

1040
0.0
1071
       34
  0
HATCH
  5
38E
330
34D
100
AcDbEntity
  8
A--L1---
 62
     1
100
AcDbHatch
 10
0.0
 20
0.0
 30
0.0
210
0.0
220
0.0
230
1.0
  2
SOLID
 70
     1
 71
     1
 91
        1
 92
        1
 93
        2
 72
     2
 10
226.5
 20
28.0
 40
2.0
 50
359.9999899717978
 51
539.9999899717978
 73
     1
 72
     2
 10
226.5
 20
28.0
 40
2.0
 50
179.9999899717978
 51
359.9999899717978
 73
     1
 97
        0
 75
     0
 76
     1
 98
        1
 10
226.5
 20
28.0
1001
TSA_
1071
        1
1071
       -1
1071
        9
1071
      125
1071
        0
1004

1040
0.0
1071
       34
  0
INSERT
  5
38F
330
34D
100
AcDbEntity
  8
A--L1---
100
AcDbBlockReference
  2
H2DUM$2
 10
226.5
 20
28.0
 30
0.0
  0
LWPOLYLINE
  5
390
330
34D
100
AcDbEntity
  8
A--L1---
  6
Continuous
 62
     2
 48
400.0
100
AcDbPolyline
 90
        2
 70
     1
 43
0.0
 10
228.5
 20
27.99999964994971
 42
1.0
 10
224.5
 20
28.00000035005029
 42
1.0
1001
TSA_
1071
        1
1071
       -1
1071
        8
1071
      125
1071
        0
1004

1040
0.0
1071
        7
  0
LWPOLYLINE
  5
391
330
34D
100
AcDbEntity
  8
A--L1---
  6
DASHDOT2
 62
     2
 48
400.0
100
AcDbPolyline
 90
        2
 70
     0
 43
0.0
 10
0.0
 20
100.0
 10
0.0
 20
3.0
1001
TSA_
1071
        1
1071
       -1
1071
        8
1071
      255
1071
        0
1004

1040
0.0
1071
       32
  0
LWPOLYLINE
  5
392
330
34D
100
AcDbEntity
  8
A--L1---
  6
DASHDOT2
 62
     2
 48
400.0
100
AcDbPolyline
 90
        2
 70
     0
 43
0.0
 10
453.0
 20
100.0
 10
453.0
 20
3.0
1001
TSA_
1071
        1
1071
       -1
1071
        8
1071
      255
1071
        0
1004

1040
0.0
1071
       32
  0
INSERT
  5
393
330
34D
100
AcDbEntity
  8
A--L1---
100
AcDbBlockReference
  2
H2DUM$2
 10
0.0
 20
193.0
 30
0.0
  0
LWPOLYLINE
  5
394
330
34D
100
AcDbEntity
  8
A--L1---
  6
Continuous
 62
     1
 48
400.0
100
AcDbPolyline
 90
        4
 70
     0
 43
0.0
 10
0.0
 20
193.0
 10
221.5
 20
193.0
 10
221.5
 20
199.0
 10
0.0
 20
199.0
1001
TSA_
1071
        1
1071
       -1
1071
        8
1071
      125
1071
        0
1004

1040
0.0
1071
       10
  0
INSERT
  5
395
330
34D
100
AcDbEntity
  8
A--L1---
100
AcDbBlockReference
  2
H2DUM$2
 10
186.5
 20
199.0
 30
0.0
  0
LWPOLYLINE
  5
396
330
34D
100
AcDbEntity
  8
A--L1---
  6
Continuous
 62
     1
 48
400.0
100
AcDbPolyline
 90
        4
 70
     1
 43
0.0
 10
186.5
 20
199.0
 10
186.5
 20
205.0
 10
266.5
 20
205.0
 10
266.5
 20
199.0
1001
TSA_
1071
        1
1071
       -1
1071
        8
1071
      125
1071
        0
1004

1040
0.0
1071
       10
  0
INSERT
  5
397
330
34D
100
AcDbEntity
  8
A--L1---
100
AcDbBlockReference
  2
H2DUM$2
 10
0.0
 20
28.0
 30
0.0
  0
LWPOLYLINE
  5
398
330
34D
100
AcDbEntity
  8
A--L1---
  6
Continuous
 62
     1
 48
400.0
100
AcDbPolyline
 90
        4
 70
     0
 43
0.0
 10
0.0
 20
28.0
 10
453.0
 20
28.0
 10
453.0
 20
34.0
 10
0.0
 20
34.0
1001
TSA_
1071
        1
1071
       -1
1071
        8
1071
      125
1071
        0
1004

1040
0.0
1071
       10
  0
INSERT
  5
399
330
34D
100
AcDbEntity
  8
A--L1---
100
AcDbBlockReference
  2
H2DUM$2
 10
186.5
 20
34.0
 30
0.0
  0
LWPOLYLINE
  5
39A
330
34D
100
AcDbEntity
  8
A--L1---
  6
Continuous
 62
     1
 48
400.0
100
AcDbPolyline
 90
        4
 70
     1
 43
0.0
 10
186.5
 20
34.0
 10
186.5
 20
40.0
 10
266.5
 20
40.0
 10
266.5
 20
34.0
1001
TSA_
1071
        1
1071
       -1
1071
        8
1071
      125
1071
        0
1004

1040
0.0
1071
       10
  0
INSERT
  5
39B
330
34D
100
AcDbEntity
  8
A--L1---
100
AcDbBlockReference
  2
H2DUM$2
 10
453.0
 20
199.0
 30
0.0
  0
LWPOLYLINE
  5
39C
330
34D
100
AcDbEntity
  8
A--L1---
  6
Continuous
 62
     1
 48
400.0
100
AcDbPolyline
 90
        4
 70
     0
 43
0.0
 10
453.0
 20
199.0
 10
231.5
 20
199.0
 10
231.5
 20
193.0
 10
453.0
 20
193.0
1001
TSA_
1071
        1
1071
       -1
1071
        8
1071
      125
1071
        0
1004

1040
0.0
1071
       10
  0
ENDBLK
  5
39E
330
34D
100
AcDbEntity
  8
0
100
AcDbBlockEnd
  0
BLOCK
  5
350
330
34E
100
AcDbEntity
  8
0
100
AcDbBlockBegin
  2
HSCHROEF$2
 70
     0
 10
0.0
 20
0.0
 30
0.0
  3
HSCHROEF$2
  1

  0
LWPOLYLINE
  5
34F
330
34E
100
AcDbEntity
  8
A--L1---
  6
Continuous
 62
     5
 48
400.0
100
AcDbPolyline
 90
       12
 70
     0
 43
0.0
 10
4.0
 20
2.0
 10
8.0
 20
-2.0
 10
12.0
 20
2.0
 10
16.0
 20
-2.0
 10
20.0
 20
2.0
 10
24.0
 20
-2.0
 10
28.0
 20
2.0
 10
30.0
 20
0.0
 10
0.0
 20
0.0
 10
-2.0
 20
2.5
 10
-2.0
 20
-2.5
 10
0.0
 20
0.0
1001
TSA_
1071
        1
1071
       -1
1071
        8
1071
      255
1071
        0
1004

1040
0.0
1071
        5
  0
ENDBLK
  5
351
330
34E
100
AcDbEntity
  8
0
100
AcDbBlockEnd
  0
BLOCK
  5
35C
330
354
100
AcDbEntity
  8
0
100
AcDbBlockBegin
  2
HBOLBENAM$2
 70
     0
 10
0.0
 20
0.0
 30
0.0
  3
HBOLBENAM$2
  1

  0
LWPOLYLINE
  5
355
330
354
100
AcDbEntity
  8
A--L1---
  6
DASHDOT2
 62
     1
 48
400.0
100
AcDbPolyline
 90
        2
 70
     1
 43
0.0
 10
1.999999999999969
 20
-0.0000003500502928
 42
1.0
 10
-1.999999999999969
 20
0.0000003500502928
 42
1.0
1001
TSA_
1071
        1
1071
       -1
1071
        9
1071
      125
1071
        0
1004

1040
0.0
1071
       34
  0
HATCH
  5
356
330
354
100
AcDbEntity
  8
A--L1---
 62
     1
100
AcDbHatch
 10
0.0
 20
0.0
 30
0.0
210
0.0
220
0.0
230
1.0
  2
SOLID
 70
     1
 71
     1
 91
        1
 92
        1
 93
        2
 72
     2
 10
0.0
 20
0.0
 40
2.0
 50
359.9999899717978
 51
539.9999899717978
 73
     1
 72
     2
 10
0.0
 20
0.0
 40
2.0
 50
179.9999899717978
 51
359.9999899717978
 73
     1
 97
        0
 75
     0
 76
     1
 98
        1
 10
1.999999999999969
 20
-0.0000003500502928
1001
TSA_
1071
        1
1071
       -1
1071
        9
1071
      125
1071
        0
1004

1040
0.0
1071
       34
  0
INSERT
  5
35A
330
354
100
AcDbEntity
  8
A--L1---
100
AcDbBlockReference
  2
H2DUM$2
 10
1.999999999999969
 20
-0.0000003500502928
 30
0.0
  0
LWPOLYLINE
  5
35B
330
354
100
AcDbEntity
  8
A--L1---
  6
Continuous
 62
     2
 48
400.0
100
AcDbPolyline
 90
        2
 70
     1
 43
0.0
 10
1.999999999999969
 20
-0.0000003500502928
 42
1.0
 10
-1.999999999999969
 20
0.0000003500502928
 42
1.0
1001
TSA_
1071
        1
1071
       -1
1071
        8
1071
      125
1071
        0
1004

1040
0.0
1071
        7
  0
ENDBLK
  5
35D
330
354
100
AcDbEntity
  8
0
100
AcDbBlockEnd
  0
BLOCK
  5
358
330
357
100
AcDbEntity
  8
0
100
AcDbBlockBegin
  2
H2DUM$2
 70
     0
 10
0.0
 20
0.0
 30
0.0
  3
H2DUM$2
  1

  0
ENDBLK
  5
359
330
357
100
AcDbEntity
  8
0
100
AcDbBlockEnd
  0
BLOCK
  5
40C
330
3A7
100
AcDbEntity
  8
0
100
AcDbBlockBegin
  2
WZSD203$2
 70
     0
 10
0.0
 20
0.0
 30
0.0
  3
WZSD203$2
  1

  0
INSERT
  5
406
330
3A7
100
AcDbEntity
  8
A--L1---
100
AcDbBlockReference
  2
WDET1-203$2
 10
335.0
 20
607.5
 30
0.0
  0
LWPOLYLINE
  5
407
330
3A7
100
AcDbEntity
  8
A--L107-
  6
Continuous
 62
     1
 48
400.0
100
AcDbPolyline
 90
        2
 70
     0
 43
0.0
 10
1000.0
 20
295.0
 10
100.0
 20
295.0
1001
TSA_
1071
        1
1071
        2
1071
        8
1071
      255
1071
        0
1004

1040
0.0
1071
        1
  0
LWPOLYLINE
  5
408
330
3A7
100
AcDbEntity
  8
A--L107-
  6
Continuous
 62
     1
 48
400.0
100
AcDbPolyline
 90
        2
 70
     0
 43
0.0
 10
1000.0
 20
172.5
 10
100.0
 20
172.5
1001
TSA_
1071
        1
1071
        3
1071
        8
1071
      255
1071
        0
1004

1040
0.0
1071
        1
  0
TEXT
  5
409
330
3A7
100
AcDbEntity
  8
A--T1---
 62
     3
100
AcDbText
 10
120.0
 20
215.0
 30
0.0
 40
14.0
  1
Detail: 203
  7
TSA-7
100
AcDbText
1001
TSA_
1071
        1
1071
        4
1071
        6
1071
      127
1071
        0
1004

1040
0.0
1071
        7
  0
LWPOLYLINE
  5
40A
330
3A7
100
AcDbEntity
  8
A--L98--
  6
Continuous
 62
     1
 48
400.0
100
AcDbPolyline
 90
        4
 70
     1
 43
0.0
 10
0.0
 20
0.0
 10
0.0
 20
1485.0
 10
1050.0
 20
1485.0
 10
1050.0
 20
0.0
1001
TSA_
1071
        1
1071
        5
1071
        8
1071
      255
1071
        0
1004

1040
0.0
1071
        1
  0
LWPOLYLINE
  5
40B
330
3A7
100
AcDbEntity
  8
A--L98--
  6
Continuous
 62
     1
 48
400.0
100
AcDbPolyline
 90
        4
 70
     1
 43
0.0
 10
100.0
 20
172.5
 10
100.0
 20
1435.0
 10
1000.0
 20
1435.0
 10
1000.0
 20
172.5
1001
TSA_
1071
        1
1071
        6
1071
        8
1071
      255
1071
        0
1004

1040
0.0
1071
        1
  0
ENDBLK
  5
40D
330
3A7
100
AcDbEntity
  8
0
100
AcDbBlockEnd
  0
BLOCK
  5
404
330
3A8
100
AcDbEntity
  8
0
100
AcDbBlockBegin
  2
WDET1-203$2
 70
     0
 10
0.0
 20
0.0
 30
0.0
  3
WDET1-203$2
  1

  0
INSERT
  5
3AD
330
3A8
100
AcDbEntity
  8
A--L1---
100
AcDbBlockReference
  2
WSCHROEF$2
 10
206.5
 20
193.0
 30
0.0
 50
89.99999999742762
1001
TSA_
1071
        1
1071
       -1
1071
        2
1071
      255
1071
        0
1004

1040
0.0
  0
INSERT
  5
3AE
330
3A8
100
AcDbEntity
  8
A--L1---
100
AcDbBlockReference
  2
WSCHROEF$2
 10
246.5
 20
193.0
 30
0.0
 42
-1.0
 50
89.99999999742762
1001
TSA_
1071
        1
1071
       -1
1071
        2
1071
      255
1071
        0
1004

1040
0.0
  0
INSERT
  5
3B9
330
3A8
100
AcDbEntity
  8
A--L1---
100
AcDbBlockReference
  2
WBOLBENAM$2
 10
240.0
 20
222.0
 30
0.0
1001
TSA_
1071
        1
1071
       -1
1071
        2
1071
      255
1071
        0
1004

1040
0.0
  0
INSERT
  5
3BA
330
3A8
100
AcDbEntity
  8
A--L1---
100
AcDbBlockReference
  2
WBOLBENAM$2
 10
240.0
 20
203.5
 30
0.0
1001
TSA_
1071
        1
1071
       -1
1071
        2
1071
      255
1071
        0
1004

1040
0.0
  0
INSERT
  5
3BB
330
3A8
100
AcDbEntity
  8
A--L1---
100
AcDbBlockReference
  2
WBOLBENAM$2
 10
240.0
 20
199.0
 30
0.0
1001
TSA_
1071
        1
1071
       -1
1071
        2
1071
      255
1071
        0
1004

1040
0.0
  0
INSERT
  5
3BC
330
3A8
100
AcDbEntity
  8
A--L1---
100
AcDbBlockReference
  2
WSCHROEF$2
 10
226.5
 20
28.0
 30
0.0
 50
89.99999999742762
1001
TSA_
1071
        1
1071
       -1
1071
        2
1071
      255
1071
        0
1004

1040
0.0
  0
INSERT
  5
3BD
330
3A8
100
AcDbEntity
  8
A--L1---
100
AcDbBlockReference
  2
WBOLBENAM$2
 10
240.0
 20
57.0
 30
0.0
1001
TSA_
1071
        1
1071
       -1
1071
        2
1071
      255
1071
        0
1004

1040
0.0
  0
INSERT
  5
3BE
330
3A8
100
AcDbEntity
  8
A--L1---
100
AcDbBlockReference
  2
WBOLBENAM$2
 10
240.0
 20
38.5
 30
0.0
1001
TSA_
1071
        1
1071
       -1
1071
        2
1071
      255
1071
        0
1004

1040
0.0
  0
INSERT
  5
3BF
330
3A8
100
AcDbEntity
  8
A--L1---
100
AcDbBlockReference
  2
WBOLBENAM$2
 10
240.0
 20
34.0
 30
0.0
1001
TSA_
1071
        1
1071
       -1
1071
        2
1071
      255
1071
        0
1004

1040
0.0
  0
LWPOLYLINE
  5
3C0
330
3A8
100
AcDbEntity
  8
A--L1---
  6
Continuous
 62
     1
 48
400.0
100
AcDbPolyline
 90
        4
 70
     1
 43
0.0
 10
191.5
 20
205.0
 10
191.5
 20
239.0
 10
261.5
 20
239.0
 10
261.5
 20
205.0
1001
TSA_
1071
        1
1071
       -1
1071
        9
1071
      121
1071
        0
1004

1040
0.0
1071
       49
  0
HATCH
  5
3C1
330
3A8
100
AcDbEntity
  8
A--L1---
 62
     5
100
AcDbHatch
 10
0.0
 20
0.0
 30
0.0
210
0.0
220
0.0
230
1.0
  2
ANSI31
 70
     0
 71
     1
 91
        1
 92
        1
 93
        4
 72
     1
 10
191.5
 20
205.0
 11
191.5
 21
239.0
 72
     1
 10
191.5
 20
239.0
 11
261.5
 21
239.0
 72
     1
 10
261.5
 20
239.0
 11
261.5
 21
205.0
 72
     1
 10
261.5
 20
205.0
 11
191.5
 21
205.0
 97
        0
 75
     0
 76
     1
 52
90.00001494311726
 41
37.5
 77
     0
 78
     1
 53
135.0000149431173
 43
0.0
 44
0.0
 45
-84.18987917773887
 46
-84.18992309230204
 79
     0
 98
        1
 10
191.5
 20
205.0
1001
TSA_
1071
        1
1071
       -1
1071
        9
1071
      121
1071
        0
1004

1040
0.0
1071
       49
  0
INSERT
  5
3C2
330
3A8
100
AcDbEntity
  8
A--L1---
100
AcDbBlockReference
  2
W2DUM$2
 10
191.5
 20
205.0
 30
0.0
  0
LWPOLYLINE
  5
3C3
330
3A8
100
AcDbEntity
  8
A--L1---
  6
Continuous
 62
     1
 48
400.0
100
AcDbPolyline
 90
        4
 70
     1
 43
0.0
 10
191.5
 20
205.0
 10
191.5
 20
239.0
 10
261.5
 20
239.0
 10
261.5
 20
205.0
1001
TSA_
1071
        1
1071
       -1
1071
        8
1071
       29
1071
        0
1004

1040
0.0
1071
        1
  0
LWPOLYLINE
  5
3C4
330
3A8
100
AcDbEntity
  8
A--L1---
  6
DASHED2
 62
     2
 48
400.0
100
AcDbPolyline
 90
        2
 70
     0
 43
0.0
 10
0.0
 20
240.0
 10
453.0
 20
240.0
1001
TSA_
1071
        1
1071
       -1
1071
        8
1071
      113
1071
        0
1004

1040
0.0
1071
       17
  0
LWPOLYLINE
  5
3C5
330
3A8
100
AcDbEntity
  8
A--L1---
  6
Continuous
 62
     5
 48
400.0
100
AcDbPolyline
 90
        3
 70
     0
 43
0.0
 10
240.0
 20
240.0
 10
240.0
 20
87.0
 10
430.0
 20
87.0
1001
TSA_
1071
        1
1071
       -1
1071
        8
1071
      255
1071
        0
1004

1040
0.0
1071
        5
  0
LWPOLYLINE
  5
3C6
330
3A8
100
AcDbEntity
  8
A--L1---
  6
DASHDOT2
 62
     1
 48
400.0
100
AcDbPolyline
 90
        2
 70
     1
 43
0.0
 10
242.0
 20
239.9999996499497
 42
1.0
 10
238.0
 20
240.0000003500503
 42
1.0
1001
TSA_
1071
        1
1071
       -1
1071
        9
1071
      125
1071
        0
1004

1040
0.0
1071
       34
  0
HATCH
  5
3C7
330
3A8
100
AcDbEntity
  8
A--L1---
 62
     1
100
AcDbHatch
 10
0.0
 20
0.0
 30
0.0
210
0.0
220
0.0
230
1.0
  2
SOLID
 70
     1
 71
     1
 91
        1
 92
        1
 93
        2
 72
     2
 10
240.0
 20
240.0
 40
2.0
 50
359.9999899717978
 51
539.9999899717978
 73
     1
 72
     2
 10
240.0
 20
240.0
 40
2.0
 50
179.9999899717978
 51
359.9999899717978
 73
     1
 97
        0
 75
     0
 76
     1
 98
        1
 10
240.0
 20
240.0
1001
TSA_
1071
        1
1071
       -1
1071
        9
1071
      125
1071
        0
1004

1040
0.0
1071
       34
  0
INSERT
  5
3C8
330
3A8
100
AcDbEntity
  8
A--L1---
100
AcDbBlockReference
  2
W2DUM$2
 10
240.0
 20
240.0
 30
0.0
  0
LWPOLYLINE
  5
3C9
330
3A8
100
AcDbEntity
  8
A--L1---
  6
Continuous
 62
     2
 48
400.0
100
AcDbPolyline
 90
        2
 70
     1
 43
0.0
 10
242.0
 20
239.9999996499497
 42
1.0
 10
238.0
 20
240.0000003500503
 42
1.0
1001
TSA_
1071
        1
1071
       -1
1071
        8
1071
      125
1071
        0
1004

1040
0.0
1071
        7
  0
LWPOLYLINE
  5
3CA
330
3A8
100
AcDbEntity
  8
A--L1---
  6
Continuous
 62
     5
 48
400.0
100
AcDbPolyline
 90
        3
 70
     0
 43
0.0
 10
206.5
 20
193.0
 10
206.5
 20
142.0
 10
-65.0
 20
142.0
1001
TSA_
1071
        1
1071
       -1
1071
        8
1071
      255
1071
        0
1004

1040
0.0
1071
        5
  0
LWPOLYLINE
  5
3CB
330
3A8
100
AcDbEntity
  8
A--L1---
  6
DASHDOT2
 62
     1
 48
400.0
100
AcDbPolyline
 90
        2
 70
     1
 43
0.0
 10
208.5
 20
192.9999996499497
 42
1.0
 10
204.5
 20
193.0000003500503
 42
1.0
1001
TSA_
1071
        1
1071
       -1
1071
        9
1071
      125
1071
        0
1004

1040
0.0
1071
       34
  0
HATCH
  5
3CC
330
3A8
100
AcDbEntity
  8
A--L1---
 62
     1
100
AcDbHatch
 10
0.0
 20
0.0
 30
0.0
210
0.0
220
0.0
230
1.0
  2
SOLID
 70
     1
 71
     1
 91
        1
 92
        1
 93
        2
 72
     2
 10
206.5
 20
193.0
 40
2.0
 50
359.9999899717978
 51
539.9999899717978
 73
     1
 72
     2
 10
206.5
 20
193.0
 40
2.0
 50
179.9999899717978
 51
359.9999899717978
 73
     1
 97
        0
 75
     0
 76
     1
 98
        1
 10
206.5
 20
193.0
1001
TSA_
1071
        1
1071
       -1
1071
        9
1071
      125
1071
        0
1004

1040
0.0
1071
       34
  0
INSERT
  5
3CD
330
3A8
100
AcDbEntity
  8
A--L1---
100
AcDbBlockReference
  2
W2DUM$2
 10
206.5
 20
193.0
 30
0.0
  0
LWPOLYLINE
  5
3CE
330
3A8
100
AcDbEntity
  8
A--L1---
  6
Continuous
 62
     2
 48
400.0
100
AcDbPolyline
 90
        2
 70
     1
 43
0.0
 10
208.5
 20
192.9999996499497
 42
1.0
 10
204.5
 20
193.0000003500503
 42
1.0
1001
TSA_
1071
        1
1071
       -1
1071
        8
1071
      125
1071
        0
1004

1040
0.0
1071
        7
  0
LWPOLYLINE
  5
3CF
330
3A8
100
AcDbEntity
  8
A--L1---
  6
DASHED2
 62
     1
 48
400.0
100
AcDbPolyline
 90
        4
 70
     1
 43
0.0
 10
0.0
 20
245.0
 10
0.0
 20
365.0
 10
453.0
 20
365.0
 10
453.0
 20
245.0
1001
TSA_
1071
        1
1071
       -1
1071
        9
1071
      121
1071
        0
1004

1040
0.0
1071
       13
  0
HATCH
  5
3D0
330
3A8
100
AcDbEntity
  8
A--L1---
 62
     5
100
AcDbHatch
 10
0.0
 20
0.0
 30
0.0
210
0.0
220
0.0
230
1.0
  2
ANSI31
 70
     0
 71
     1
 91
        1
 92
        1
 93
        4
 72
     1
 10
0.0
 20
245.0
 11
0.0
 21
365.0
 72
     1
 10
0.0
 20
365.0
 11
453.0
 21
365.0
 72
     1
 10
453.0
 20
365.0
 11
453.0
 21
245.0
 72
     1
 10
453.0
 20
245.0
 11
0.0
 21
245.0
 97
        0
 75
     0
 76
     1
 52
0.0
 41
50.0
 77
     0
 78
     1
 53
45.0
 43
0.0
 44
0.0
 45
-112.2532015133644
 46
112.2532015133644
 79
     0
 98
        1
 10
0.0
 20
245.0
1001
TSA_
1071
        1
1071
       -1
1071
        9
1071
      121
1071
        0
1004

1040
0.0
1071
       13
  0
LWPOLYLINE
  5
3D1
330
3A8
100
AcDbEntity
  8
A--L1---
  6
DASHED2
 62
     1
 48
400.0
100
AcDbPolyline
 90
        4
 70
     1
 43
0.0
 10
0.0
 20
245.0
 10
0.0
 20
365.0
 10
453.0
 20
365.0
 10
453.0
 20
245.0
1001
TSA_
1071
        1
1071
       -1
1071
        9
1071
      121
1071
        0
1004

1040
0.0
1071
       20
  0
HATCH
  5
3D2
330
3A8
100
AcDbEntity
  8
A--L1---
 62
     5
100
AcDbHatch
 10
0.0
 20
0.0
 30
0.0
210
0.0
220
0.0
230
1.0
  2
ANSI31
 70
     0
 71
     1
 91
        1
 92
        1
 93
        4
 72
     1
 10
0.0
 20
245.0
 11
0.0
 21
365.0
 72
     1
 10
0.0
 20
365.0
 11
453.0
 21
365.0
 72
     1
 10
453.0
 20
365.0
 11
453.0
 21
245.0
 72
     1
 10
453.0
 20
245.0
 11
0.0
 21
245.0
 97
        0
 75
     0
 76
     1
 52
90.00001494311726
 41
50.0
 77
     0
 78
     1
 53
135.0000149431173
 43
0.0
 44
0.0
 45
-112.2531722369852
 46
-112.2532307897361
 79
     0
 98
        1
 10
0.0
 20
245.0
1001
TSA_
1071
        1
1071
       -1
1071
        9
1071
      121
1071
        0
1004

1040
0.0
1071
       20
  0
INSERT
  5
3D3
330
3A8
100
AcDbEntity
  8
A--L1---
100
AcDbBlockReference
  2
W2DUM$2
 10
0.0
 20
245.0
 30
0.0
  0
LWPOLYLINE
  5
3D4
330
3A8
100
AcDbEntity
  8
A--L1---
  6
Continuous
 62
     1
 48
400.0
100
AcDbPolyline
 90
        2
 70
     0
 43
0.0
 10
0.0
 20
245.0
 10
453.0
 20
245.0
1001
TSA_
1071
        1
1071
       -1
1071
        8
1071
      121
1071
        0
1004

1040
0.0
1071
       10
  0
LWPOLYLINE
  5
3D5
330
3A8
100
AcDbEntity
  8
A--L1---
  6
Continuous
 62
     1
 48
400.0
100
AcDbPolyline
 90
        2
 70
     0
 43
0.0
 10
0.0
 20
365.0
 10
453.0
 20
365.0
1001
TSA_
1071
        1
1071
       -1
1071
        8
1071
      121
1071
        0
1004

1040
0.0
1071
       10
  0
LWPOLYLINE
  5
3D6
330
3A8
100
AcDbEntity
  8
A--L1---
  6
DASHDOT2
 62
     2
 48
400.0
100
AcDbPolyline
 90
        2
 70
     0
 43
0.0
 10
0.0
 20
420.0
 10
0.0
 20
168.0
1001
TSA_
1071
        1
1071
       -1
1071
        8
1071
      255
1071
        0
1004

1040
0.0
1071
       32
  0
LWPOLYLINE
  5
3D7
330
3A8
100
AcDbEntity
  8
A--L1---
  6
DASHDOT2
 62
     2
 48
400.0
100
AcDbPolyline
 90
        2
 70
     0
 43
0.0
 10
453.0
 20
420.0
 10
453.0
 20
168.0
1001
TSA_
1071
        1
1071
       -1
1071
        8
1071
      255
1071
        0
1004

1040
0.0
1071
       32
  0
LWPOLYLINE
  5
3D8
330
3A8
100
AcDbEntity
  8
A--L1---
  6
DASHDOT2
 62
     2
 48
400.0
100
AcDbPolyline
 90
        2
 70
     0
 43
0.0
 10
-25.0
 20
395.0
 10
478.0
 20
395.0
1001
TSA_
1071
        1
1071
       -1
1071
        8
1071
      255
1071
        0
1004

1040
0.0
1071
       32
  0
LWPOLYLINE
  5
3D9
330
3A8
100
AcDbEntity
  8
A--L1---
  6
DASHED2
 62
     1
 48
400.0
100
AcDbPolyline
 90
        4
 70
     1
 43
0.0
 10
453.0
 20
395.0
 10
453.0
 20
365.0
 10
0.0
 20
365.0
 10
0.0
 20
395.0
1001
TSA_
1071
        1
1071
       -1
1071
        9
1071
      125
1071
        0
1004

1040
0.0
1071
       16
  0
HATCH
  5
3DA
330
3A8
100
AcDbEntity
  8
A--L1---
 62
   253
100
AcDbHatch
 10
0.0
 20
0.0
 30
0.0
210
0.0
220
0.0
230
1.0
  2
SOLID
 70
     1
 71
     1
 91
        1
 92
        1
 93
        4
 72
     1
 10
453.0
 20
395.0
 11
453.0
 21
365.0
 72
     1
 10
453.0
 20
365.0
 11
0.0
 21
365.0
 72
     1
 10
0.0
 20
365.0
 11
0.0
 21
395.0
 72
     1
 10
0.0
 20
395.0
 11
453.0
 21
395.0
 97
        0
 75
     0
 76
     1
 98
        1
 10
453.0
 20
395.0
1001
TSA_
1071
        1
1071
       -1
1071
        9
1071
      125
1071
        0
1004

1040
0.0
1071
       16
  0
INSERT
  5
3DB
330
3A8
100
AcDbEntity
  8
A--L1---
100
AcDbBlockReference
  2
W2DUM$2
 10
453.0
 20
395.0
 30
0.0
  0
LWPOLYLINE
  5
3DC
330
3A8
100
AcDbEntity
  8
A--L1---
  6
DASHED2
 62
     1
 48
400.0
100
AcDbPolyline
 90
        4
 70
     1
 43
0.0
 10
453.0
 20
395.0
 10
453.0
 20
365.0
 10
0.0
 20
365.0
 10
0.0
 20
395.0
1001
TSA_
1071
        1
1071
       -1
1071
        9
1071
      127
1071
        0
1004

1040
0.0
1071
       11
  0
HATCH
  5
3DD
330
3A8
100
AcDbEntity
  8
A--L1---
 62
     3
100
AcDbHatch
 10
0.0
 20
0.0
 30
0.0
210
0.0
220
0.0
230
1.0
  2
SOLID
 70
     1
 71
     1
 91
        1
 92
        1
 93
        4
 72
     1
 10
453.0
 20
395.0
 11
453.0
 21
365.0
 72
     1
 10
453.0
 20
365.0
 11
0.0
 21
365.0
 72
     1
 10
0.0
 20
365.0
 11
0.0
 21
395.0
 72
     1
 10
0.0
 20
395.0
 11
453.0
 21
395.0
 97
        0
 75
     0
 76
     1
 98
        1
 10
453.0
 20
395.0
1001
TSA_
1071
        1
1071
       -1
1071
        9
1071
      127
1071
        0
1004

1040
0.0
1071
       11
  0
LWPOLYLINE
  5
3DE
330
3A8
100
AcDbEntity
  8
A--L1---
  6
Continuous
 62
     2
 48
400.0
100
AcDbPolyline
 90
        2
 70
     0
 43
0.0
 10
453.0
 20
365.0
 10
0.0
 20
365.0
1001
TSA_
1071
        1
1071
       -1
1071
        8
1071
      125
1071
        0
1004

1040
0.0
1071
        9
  0
LWPOLYLINE
  5
3DF
330
3A8
100
AcDbEntity
  8
A--L1---
  6
Continuous
 62
     1
 48
400.0
100
AcDbPolyline
 90
        4
 70
     1
 43
0.0
 10
204.0
 20
40.0
 10
204.0
 20
74.0
 10
249.0
 20
74.0
 10
249.0
 20
40.0
1001
TSA_
1071
        1
1071
       -1
1071
        9
1071
      121
1071
        0
1004

1040
0.0
1071
       49
  0
HATCH
  5
3E0
330
3A8
100
AcDbEntity
  8
A--L1---
 62
     5
100
AcDbHatch
 10
0.0
 20
0.0
 30
0.0
210
0.0
220
0.0
230
1.0
  2
ANSI31
 70
     0
 71
     1
 91
        1
 92
        1
 93
        4
 72
     1
 10
204.0
 20
40.0
 11
204.0
 21
74.0
 72
     1
 10
204.0
 20
74.0
 11
249.0
 21
74.0
 72
     1
 10
249.0
 20
74.0
 11
249.0
 21
40.0
 72
     1
 10
249.0
 20
40.0
 11
204.0
 21
40.0
 97
        0
 75
     0
 76
     1
 52
90.00001494311726
 41
37.5
 77
     0
 78
     1
 53
135.0000149431173
 43
0.0
 44
0.0
 45
-84.18987917773887
 46
-84.18992309230204
 79
     0
 98
        1
 10
204.0
 20
40.0
1001
TSA_
1071
        1
1071
       -1
1071
        9
1071
      121
1071
        0
1004

1040
0.0
1071
       49
  0
INSERT
  5
3E1
330
3A8
100
AcDbEntity
  8
A--L1---
100
AcDbBlockReference
  2
W2DUM$2
 10
204.0
 20
40.0
 30
0.0
  0
LWPOLYLINE
  5
3E2
330
3A8
100
AcDbEntity
  8
A--L1---
  6
Continuous
 62
     1
 48
400.0
100
AcDbPolyline
 90
        4
 70
     1
 43
0.0
 10
204.0
 20
40.0
 10
204.0
 20
74.0
 10
249.0
 20
74.0
 10
249.0
 20
40.0
1001
TSA_
1071
        1
1071
       -1
1071
        8
1071
       29
1071
        0
1004

1040
0.0
1071
        1
  0
LWPOLYLINE
  5
3E3
330
3A8
100
AcDbEntity
  8
A--L1---
  6
DASHED2
 62
     2
 48
400.0
100
AcDbPolyline
 90
        2
 70
     0
 43
0.0
 10
0.0
 20
75.0
 10
453.0
 20
75.0
1001
TSA_
1071
        1
1071
       -1
1071
        8
1071
      113
1071
        0
1004

1040
0.0
1071
       17
  0
LWPOLYLINE
  5
3E4
330
3A8
100
AcDbEntity
  8
A--L1---
  6
Continuous
 62
     5
 48
400.0
100
AcDbPolyline
 90
        3
 70
     0
 43
0.0
 10
240.0
 20
75.0
 10
240.0
 20
-78.0
 10
430.0
 20
-78.0
1001
TSA_
1071
        1
1071
       -1
1071
        8
1071
      255
1071
        0
1004

1040
0.0
1071
        5
  0
LWPOLYLINE
  5
3E5
330
3A8
100
AcDbEntity
  8
A--L1---
  6
DASHDOT2
 62
     1
 48
400.0
100
AcDbPolyline
 90
        2
 70
     1
 43
0.0
 10
242.0
 20
74.99999964994971
 42
1.0
 10
238.0
 20
75.00000035005029
 42
1.0
1001
TSA_
1071
        1
1071
       -1
1071
        9
1071
      125
1071
        0
1004

1040
0.0
1071
       34
  0
HATCH
  5
3E6
330
3A8
100
AcDbEntity
  8
A--L1---
 62
     1
100
AcDbHatch
 10
0.0
 20
0.0
 30
0.0
210
0.0
220
0.0
230
1.0
  2
SOLID
 70
     1
 71
     1
 91
        1
 92
        1
 93
        2
 72
     2
 10
240.0
 20
75.0
 40
2.0
 50
359.9999899717978
 51
539.9999899717978
 73
     1
 72
     2
 10
240.0
 20
75.0
 40
2.0
 50
179.9999899717978
 51
359.9999899717978
 73
     1
 97
        0
 75
     0
 76
     1
 98
        1
 10
240.0
 20
75.0
1001
TSA_
1071
        1
1071
       -1
1071
        9
1071
      125
1071
        0
1004

1040
0.0
1071
       34
  0
INSERT
  5
3E7
330
3A8
100
AcDbEntity
  8
A--L1---
100
AcDbBlockReference
  2
W2DUM$2
 10
240.0
 20
75.0
 30
0.0
  0
LWPOLYLINE
  5
3E8
330
3A8
100
AcDbEntity
  8
A--L1---
  6
Continuous
 62
     2
 48
400.0
100
AcDbPolyline
 90
        2
 70
     1
 43
0.0
 10
242.0
 20
74.99999964994971
 42
1.0
 10
238.0
 20
75.00000035005029
 42
1.0
1001
TSA_
1071
        1
1071
       -1
1071
        8
1071
      125
1071
        0
1004

1040
0.0
1071
        7
  0
LWPOLYLINE
  5
3E9
330
3A8
100
AcDbEntity
  8
A--L1---
  6
Continuous
 62
     5
 48
400.0
100
AcDbPolyline
 90
        3
 70
     0
 43
0.0
 10
226.5
 20
28.0
 10
226.5
 20
-23.0
 10
-65.0
 20
-23.0
1001
TSA_
1071
        1
1071
       -1
1071
        8
1071
      255
1071
        0
1004

1040
0.0
1071
        5
  0
LWPOLYLINE
  5
3EA
330
3A8
100
AcDbEntity
  8
A--L1---
  6
DASHDOT2
 62
     1
 48
400.0
100
AcDbPolyline
 90
        2
 70
     1
 43
0.0
 10
228.5
 20
27.99999964994971
 42
1.0
 10
224.5
 20
28.00000035005029
 42
1.0
1001
TSA_
1071
        1
1071
       -1
1071
        9
1071
      125
1071
        0
1004

1040
0.0
1071
       34
  0
HATCH
  5
3EB
330
3A8
100
AcDbEntity
  8
A--L1---
 62
     1
100
AcDbHatch
 10
0.0
 20
0.0
 30
0.0
210
0.0
220
0.0
230
1.0
  2
SOLID
 70
     1
 71
     1
 91
        1
 92
        1
 93
        2
 72
     2
 10
226.5
 20
28.0
 40
2.0
 50
359.9999899717978
 51
539.9999899717978
 73
     1
 72
     2
 10
226.5
 20
28.0
 40
2.0
 50
179.9999899717978
 51
359.9999899717978
 73
     1
 97
        0
 75
     0
 76
     1
 98
        1
 10
226.5
 20
28.0
1001
TSA_
1071
        1
1071
       -1
1071
        9
1071
      125
1071
        0
1004

1040
0.0
1071
       34
  0
INSERT
  5
3EC
330
3A8
100
AcDbEntity
  8
A--L1---
100
AcDbBlockReference
  2
W2DUM$2
 10
226.5
 20
28.0
 30
0.0
  0
LWPOLYLINE
  5
3ED
330
3A8
100
AcDbEntity
  8
A--L1---
  6
Continuous
 62
     2
 48
400.0
100
AcDbPolyline
 90
        2
 70
     1
 43
0.0
 10
228.5
 20
27.99999964994971
 42
1.0
 10
224.5
 20
28.00000035005029
 42
1.0
1001
TSA_
1071
        1
1071
       -1
1071
        8
1071
      125
1071
        0
1004

1040
0.0
1071
        7
  0
LWPOLYLINE
  5
3EE
330
3A8
100
AcDbEntity
  8
A--L1---
  6
DASHDOT2
 62
     2
 48
400.0
100
AcDbPolyline
 90
        2
 70
     0
 43
0.0
 10
0.0
 20
100.0
 10
0.0
 20
3.0
1001
TSA_
1071
        1
1071
       -1
1071
        8
1071
      255
1071
        0
1004

1040
0.0
1071
       32
  0
LWPOLYLINE
  5
3EF
330
3A8
100
AcDbEntity
  8
A--L1---
  6
DASHDOT2
 62
     2
 48
400.0
100
AcDbPolyline
 90
        2
 70
     0
 43
0.0
 10
453.0
 20
100.0
 10
453.0
 20
3.0
1001
TSA_
1071
        1
1071
       -1
1071
        8
1071
      255
1071
        0
1004

1040
0.0
1071
       32
  0
LWPOLYLINE
  5
3F0
330
3A8
100
AcDbEntity
  8
A--L1---
  6
DOT2
 62
     1
 48
400.0
100
AcDbPolyline
 90
        4
 70
     1
 43
0.0
 10
0.0
 20
193.0
 10
221.5
 20
193.0
 10
221.5
 20
199.0
 10
0.0
 20
199.0
1001
TSA_
1071
        1
1071
       -1
1071
        9
1071
      113
1071
        0
1004

1040
0.0
1071
       29
  0
HATCH
  5
3F1
330
3A8
100
AcDbEntity
  8
A--L1---
 62
     5
100
AcDbHatch
 10
0.0
 20
0.0
 30
0.0
210
0.0
220
0.0
230
1.0
  2
ANSI31
 70
     0
 71
     1
 91
        1
 92
        1
 93
        4
 72
     1
 10
0.0
 20
193.0
 11
221.5
 21
193.0
 72
     1
 10
221.5
 20
193.0
 11
221.5
 21
199.0
 72
     1
 10
221.5
 20
199.0
 11
0.0
 21
199.0
 72
     1
 10
0.0
 20
199.0
 11
0.0
 21
193.0
 97
        0
 75
     0
 76
     1
 52
45.00000747155863
 41
40.0
 77
     0
 78
     1
 53
90.00000747155863
 43
0.0
 44
0.0
 45
-126.9999999999989
 46
-0.0000165612188781
 79
     0
 98
        1
 10
0.0
 20
193.0
1001
TSA_
1071
        1
1071
       -1
1071
        9
1071
      113
1071
        0
1004

1040
0.0
1071
       29
  0
INSERT
  5
3F2
330
3A8
100
AcDbEntity
  8
A--L1---
100
AcDbBlockReference
  2
W2DUM$2
 10
0.0
 20
193.0
 30
0.0
  0
LWPOLYLINE
  5
3F3
330
3A8
100
AcDbEntity
  8
A--L1---
  6
Continuous
 62
     1
 48
400.0
100
AcDbPolyline
 90
        4
 70
     0
 43
0.0
 10
0.0
 20
193.0
 10
221.5
 20
193.0
 10
221.5
 20
199.0
 10
0.0
 20
199.0
1001
TSA_
1071
        1
1071
       -1
1071
        8
1071
      125
1071
        0
1004

1040
0.0
1071
       10
  0
LWPOLYLINE
  5
3F4
330
3A8
100
AcDbEntity
  8
A--L1---
  6
DOT2
 62
     1
 48
400.0
100
AcDbPolyline
 90
        4
 70
     1
 43
0.0
 10
186.5
 20
199.0
 10
186.5
 20
205.0
 10
266.5
 20
205.0
 10
266.5
 20
199.0
1001
TSA_
1071
        1
1071
       -1
1071
        9
1071
      113
1071
        0
1004

1040
0.0
1071
       29
  0
HATCH
  5
3F5
330
3A8
100
AcDbEntity
  8
A--L1---
 62
     5
100
AcDbHatch
 10
0.0
 20
0.0
 30
0.0
210
0.0
220
0.0
230
1.0
  2
ANSI31
 70
     0
 71
     1
 91
        1
 92
        1
 93
        4
 72
     1
 10
186.5
 20
199.0
 11
186.5
 21
205.0
 72
     1
 10
186.5
 20
205.0
 11
266.5
 21
205.0
 72
     1
 10
266.5
 20
205.0
 11
266.5
 21
199.0
 72
     1
 10
266.5
 20
199.0
 11
186.5
 21
199.0
 97
        0
 75
     0
 76
     1
 52
45.00000747155863
 41
40.0
 77
     0
 78
     1
 53
90.00000747155863
 43
0.0
 44
0.0
 45
-126.9999999999989
 46
-0.0000165612188781
 79
     0
 98
        1
 10
186.5
 20
199.0
1001
TSA_
1071
        1
1071
       -1
1071
        9
1071
      113
1071
        0
1004

1040
0.0
1071
       29
  0
INSERT
  5
3F6
330
3A8
100
AcDbEntity
  8
A--L1---
100
AcDbBlockReference
  2
W2DUM$2
 10
186.5
 20
199.0
 30
0.0
  0
LWPOLYLINE
  5
3F7
330
3A8
100
AcDbEntity
  8
A--L1---
  6
Continuous
 62
     1
 48
400.0
100
AcDbPolyline
 90
        4
 70
     1
 43
0.0
 10
186.5
 20
199.0
 10
186.5
 20
205.0
 10
266.5
 20
205.0
 10
266.5
 20
199.0
1001
TSA_
1071
        1
1071
       -1
1071
        8
1071
      125
1071
        0
1004

1040
0.0
1071
       10
  0
LWPOLYLINE
  5
3F8
330
3A8
100
AcDbEntity
  8
A--L1---
  6
DOT2
 62
     1
 48
400.0
100
AcDbPolyline
 90
        4
 70
     1
 43
0.0
 10
0.0
 20
28.0
 10
453.0
 20
28.0
 10
453.0
 20
34.0
 10
0.0
 20
34.0
1001
TSA_
1071
        1
1071
       -1
1071
        9
1071
      113
1071
        0
1004

1040
0.0
1071
       29
  0
HATCH
  5
3F9
330
3A8
100
AcDbEntity
  8
A--L1---
 62
     5
100
AcDbHatch
 10
0.0
 20
0.0
 30
0.0
210
0.0
220
0.0
230
1.0
  2
ANSI31
 70
     0
 71
     1
 91
        1
 92
        1
 93
        4
 72
     1
 10
0.0
 20
28.0
 11
453.0
 21
28.0
 72
     1
 10
453.0
 20
28.0
 11
453.0
 21
34.0
 72
     1
 10
453.0
 20
34.0
 11
0.0
 21
34.0
 72
     1
 10
0.0
 20
34.0
 11
0.0
 21
28.0
 97
        0
 75
     0
 76
     1
 52
45.00000747155863
 41
40.0
 77
     0
 78
     1
 53
90.00000747155863
 43
0.0
 44
0.0
 45
-126.9999999999989
 46
-0.0000165612188781
 79
     0
 98
        1
 10
0.0
 20
28.0
1001
TSA_
1071
        1
1071
       -1
1071
        9
1071
      113
1071
        0
1004

1040
0.0
1071
       29
  0
INSERT
  5
3FA
330
3A8
100
AcDbEntity
  8
A--L1---
100
AcDbBlockReference
  2
W2DUM$2
 10
0.0
 20
28.0
 30
0.0
  0
LWPOLYLINE
  5
3FB
330
3A8
100
AcDbEntity
  8
A--L1---
  6
Continuous
 62
     1
 48
400.0
100
AcDbPolyline
 90
        4
 70
     0
 43
0.0
 10
0.0
 20
28.0
 10
453.0
 20
28.0
 10
453.0
 20
34.0
 10
0.0
 20
34.0
1001
TSA_
1071
        1
1071
       -1
1071
        8
1071
      125
1071
        0
1004

1040
0.0
1071
       10
  0
LWPOLYLINE
  5
3FC
330
3A8
100
AcDbEntity
  8
A--L1---
  6
DOT2
 62
     1
 48
400.0
100
AcDbPolyline
 90
        4
 70
     1
 43
0.0
 10
186.5
 20
34.0
 10
186.5
 20
40.0
 10
266.5
 20
40.0
 10
266.5
 20
34.0
1001
TSA_
1071
        1
1071
       -1
1071
        9
1071
      113
1071
        0
1004

1040
0.0
1071
       29
  0
HATCH
  5
3FD
330
3A8
100
AcDbEntity
  8
A--L1---
 62
     5
100
AcDbHatch
 10
0.0
 20
0.0
 30
0.0
210
0.0
220
0.0
230
1.0
  2
ANSI31
 70
     0
 71
     1
 91
        1
 92
        1
 93
        4
 72
     1
 10
186.5
 20
34.0
 11
186.5
 21
40.0
 72
     1
 10
186.5
 20
40.0
 11
266.5
 21
40.0
 72
     1
 10
266.5
 20
40.0
 11
266.5
 21
34.0
 72
     1
 10
266.5
 20
34.0
 11
186.5
 21
34.0
 97
        0
 75
     0
 76
     1
 52
45.00000747155863
 41
40.0
 77
     0
 78
     1
 53
90.00000747155863
 43
0.0
 44
0.0
 45
-126.9999999999989
 46
-0.0000165612188781
 79
     0
 98
        1
 10
186.5
 20
34.0
1001
TSA_
1071
        1
1071
       -1
1071
        9
1071
      113
1071
        0
1004

1040
0.0
1071
       29
  0
INSERT
  5
3FE
330
3A8
100
AcDbEntity
  8
A--L1---
100
AcDbBlockReference
  2
W2DUM$2
 10
186.5
 20
34.0
 30
0.0
  0
LWPOLYLINE
  5
3FF
330
3A8
100
AcDbEntity
  8
A--L1---
  6
Continuous
 62
     1
 48
400.0
100
AcDbPolyline
 90
        4
 70
     1
 43
0.0
 10
186.5
 20
34.0
 10
186.5
 20
40.0
 10
266.5
 20
40.0
 10
266.5
 20
34.0
1001
TSA_
1071
        1
1071
       -1
1071
        8
1071
      125
1071
        0
1004

1040
0.0
1071
       10
  0
LWPOLYLINE
  5
400
330
3A8
100
AcDbEntity
  8
A--L1---
  6
DOT2
 62
     1
 48
400.0
100
AcDbPolyline
 90
        4
 70
     1
 43
0.0
 10
453.0
 20
199.0
 10
231.5
 20
199.0
 10
231.5
 20
193.0
 10
453.0
 20
193.0
1001
TSA_
1071
        1
1071
       -1
1071
        9
1071
      113
1071
        0
1004

1040
0.0
1071
       29
  0
HATCH
  5
401
330
3A8
100
AcDbEntity
  8
A--L1---
 62
     5
100
AcDbHatch
 10
0.0
 20
0.0
 30
0.0
210
0.0
220
0.0
230
1.0
  2
ANSI31
 70
     0
 71
     1
 91
        1
 92
        1
 93
        4
 72
     1
 10
453.0
 20
199.0
 11
231.5
 21
199.0
 72
     1
 10
231.5
 20
199.0
 11
231.5
 21
193.0
 72
     1
 10
231.5
 20
193.0
 11
453.0
 21
193.0
 72
     1
 10
453.0
 20
193.0
 11
453.0
 21
199.0
 97
        0
 75
     0
 76
     1
 52
45.00000747155863
 41
40.0
 77
     0
 78
     1
 53
90.00000747155863
 43
0.0
 44
0.0
 45
-126.9999999999989
 46
-0.0000165612188781
 79
     0
 98
        1
 10
453.0
 20
199.0
1001
TSA_
1071
        1
1071
       -1
1071
        9
1071
      113
1071
        0
1004

1040
0.0
1071
       29
  0
INSERT
  5
402
330
3A8
100
AcDbEntity
  8
A--L1---
100
AcDbBlockReference
  2
W2DUM$2
 10
453.0
 20
199.0
 30
0.0
  0
LWPOLYLINE
  5
403
330
3A8
100
AcDbEntity
  8
A--L1---
  6
Continuous
 62
     1
 48
400.0
100
AcDbPolyline
 90
        4
 70
     0
 43
0.0
 10
453.0
 20
199.0
 10
231.5
 20
199.0
 10
231.5
 20
193.0
 10
453.0
 20
193.0
1001
TSA_
1071
        1
1071
       -1
1071
        8
1071
      125
1071
        0
1004

1040
0.0
1071
       10
  0
ENDBLK
  5
405
330
3A8
100
AcDbEntity
  8
0
100
AcDbBlockEnd
  0
BLOCK
  5
3AB
330
3A9
100
AcDbEntity
  8
0
100
AcDbBlockBegin
  2
WSCHROEF$2
 70
     0
 10
0.0
 20
0.0
 30
0.0
  3
WSCHROEF$2
  1

  0
LWPOLYLINE
  5
3AA
330
3A9
100
AcDbEntity
  8
A--L1---
  6
Continuous
 62
     5
 48
400.0
100
AcDbPolyline
 90
       12
 70
     0
 43
0.0
 10
4.0
 20
2.0
 10
8.0
 20
-2.0
 10
12.0
 20
2.0
 10
16.0
 20
-2.0
 10
20.0
 20
2.0
 10
24.0
 20
-2.0
 10
28.0
 20
2.0
 10
30.0
 20
0.0
 10
0.0
 20
0.0
 10
-2.0
 20
2.5
 10
-2.0
 20
-2.5
 10
0.0
 20
0.0
1001
TSA_
1071
        1
1071
       -1
1071
        8
1071
      255
1071
        0
1004

1040
0.0
1071
        5
  0
ENDBLK
  5
3AC
330
3A9
100
AcDbEntity
  8
0
100
AcDbBlockEnd
  0
BLOCK
  5
3B7
330
3AF
100
AcDbEntity
  8
0
100
AcDbBlockBegin
  2
WBOLBENAM$2
 70
     0
 10
0.0
 20
0.0
 30
0.0
  3
WBOLBENAM$2
  1

  0
LWPOLYLINE
  5
3B0
330
3AF
100
AcDbEntity
  8
A--L1---
  6
DASHDOT2
 62
     1
 48
400.0
100
AcDbPolyline
 90
        2
 70
     1
 43
0.0
 10
1.999999999999969
 20
-0.0000003500502928
 42
1.0
 10
-1.999999999999969
 20
0.0000003500502928
 42
1.0
1001
TSA_
1071
        1
1071
       -1
1071
        9
1071
      125
1071
        0
1004

1040
0.0
1071
       34
  0
HATCH
  5
3B1
330
3AF
100
AcDbEntity
  8
A--L1---
 62
     1
100
AcDbHatch
 10
0.0
 20
0.0
 30
0.0
210
0.0
220
0.0
230
1.0
  2
SOLID
 70
     1
 71
     1
 91
        1
 92
        1
 93
        2
 72
     2
 10
0.0
 20
0.0
 40
2.0
 50
359.9999899717978
 51
539.9999899717978
 73
     1
 72
     2
 10
0.0
 20
0.0
 40
2.0
 50
179.9999899717978
 51
359.9999899717978
 73
     1
 97
        0
 75
     0
 76
     1
 98
        1
 10
1.999999999999969
 20
-0.0000003500502928
1001
TSA_
1071
        1
1071
       -1
1071
        9
1071
      125
1071
        0
1004

1040
0.0
1071
       34
  0
INSERT
  5
3B5
330
3AF
100
AcDbEntity
  8
A--L1---
100
AcDbBlockReference
  2
W2DUM$2
 10
1.999999999999969
 20
-0.0000003500502928
 30
0.0
  0
LWPOLYLINE
  5
3B6
330
3AF
100
AcDbEntity
  8
A--L1---
  6
Continuous
 62
     2
 48
400.0
100
AcDbPolyline
 90
        2
 70
     1
 43
0.0
 10
1.999999999999969
 20
-0.0000003500502928
 42
1.0
 10
-1.999999999999969
 20
0.0000003500502928
 42
1.0
1001
TSA_
1071
        1
1071
       -1
1071
        8
1071
      125
1071
        0
1004

1040
0.0
1071
        7
  0
ENDBLK
  5
3B8
330
3AF
100
AcDbEntity
  8
0
100
AcDbBlockEnd
  0
BLOCK
  5
3B3
330
3B2
100
AcDbEntity
  8
0
100
AcDbBlockBegin
  2
W2DUM$2
 70
     0
 10
0.0
 20
0.0
 30
0.0
  3
W2DUM$2
  1

  0
ENDBLK
  5
3B4
330
3B2
100
AcDbEntity
  8
0
100
AcDbBlockEnd
  0
BLOCK
  5
47D
330
40E
100
AcDbEntity
  8
0
100
AcDbBlockBegin
  2
BZSD203$2
 70
     0
 10
0.0
 20
0.0
 30
0.0
  3
BZSD203$2
  1

  0
INSERT
  5
477
330
40E
100
AcDbEntity
  8
A--L1---
100
AcDbBlockReference
  2
BDET1-203$2
 10
335.0
 20
607.5
 30
0.0
  0
LWPOLYLINE
  5
478
330
40E
100
AcDbEntity
  8
A--L107-
  6
Continuous
 62
     1
 48
400.0
100
AcDbPolyline
 90
        2
 70
     0
 43
0.0
 10
1000.0
 20
295.0
 10
100.0
 20
295.0
1001
TSA_
1071
        1
1071
        2
1071
        8
1071
      255
1071
        0
1004

1040
0.0
1071
        1
  0
LWPOLYLINE
  5
479
330
40E
100
AcDbEntity
  8
A--L107-
  6
Continuous
 62
     1
 48
400.0
100
AcDbPolyline
 90
        2
 70
     0
 43
0.0
 10
1000.0
 20
172.5
 10
100.0
 20
172.5
1001
TSA_
1071
        1
1071
        3
1071
        8
1071
      255
1071
        0
1004

1040
0.0
1071
        1
  0
TEXT
  5
47A
330
40E
100
AcDbEntity
  8
A--T1---
 62
     3
100
AcDbText
 10
120.0
 20
215.0
 30
0.0
 40
14.0
  1
Detail: 203
  7
TSA-7
100
AcDbText
1001
TSA_
1071
        1
1071
        4
1071
        6
1071
      127
1071
        0
1004

1040
0.0
1071
        7
  0
LWPOLYLINE
  5
47B
330
40E
100
AcDbEntity
  8
A--L98--
  6
Continuous
 62
     1
 48
400.0
100
AcDbPolyline
 90
        4
 70
     1
 43
0.0
 10
0.0
 20
0.0
 10
0.0
 20
1485.0
 10
1050.0
 20
1485.0
 10
1050.0
 20
0.0
1001
TSA_
1071
        1
1071
        5
1071
        8
1071
      255
1071
        0
1004

1040
0.0
1071
        1
  0
LWPOLYLINE
  5
47C
330
40E
100
AcDbEntity
  8
A--L98--
  6
Continuous
 62
     1
 48
400.0
100
AcDbPolyline
 90
        4
 70
     1
 43
0.0
 10
100.0
 20
172.5
 10
100.0
 20
1435.0
 10
1000.0
 20
1435.0
 10
1000.0
 20
172.5
1001
TSA_
1071
        1
1071
        6
1071
        8
1071
      255
1071
        0
1004

1040
0.0
1071
        1
  0
ENDBLK
  5
47E
330
40E
100
AcDbEntity
  8
0
100
AcDbBlockEnd
  0
BLOCK
  5
475
330
40F
100
AcDbEntity
  8
0
100
AcDbBlockBegin
  2
BDET1-203$2
 70
     0
 10
0.0
 20
0.0
 30
0.0
  3
BDET1-203$2
  1

  0
INSERT
  5
414
330
40F
100
AcDbEntity
  8
A--L1---
100
AcDbBlockReference
  2
BSCHROEF$2
 10
206.5
 20
193.0
 30
0.0
 50
89.99999999742762
1001
TSA_
1071
        1
1071
       -1
1071
        2
1071
      255
1071
        0
1004

1040
0.0
  0
INSERT
  5
415
330
40F
100
AcDbEntity
  8
A--L1---
100
AcDbBlockReference
  2
BSCHROEF$2
 10
246.5
 20
193.0
 30
0.0
 42
-1.0
 50
89.99999999742762
1001
TSA_
1071
        1
1071
       -1
1071
        2
1071
      255
1071
        0
1004

1040
0.0
  0
TEXT
  5
416
330
40F
100
AcDbEntity
  8
A--T108-
 62
     1
100
AcDbText
 10
245.0
 20
142.0
 30
0.0
 40
3.6
  1
DAMPDOORLATENDE FOLIE
  7
TSA-0_18
100
AcDbText
1001
TSA_
1071
        1
1071
       -1
1071
        6
1071
       97
1071
        0
1004

1040
0.0
1071
       72
  0
TEXT
  5
417
330
40F
100
AcDbEntity
  8
A--T108-
 62
     1
100
AcDbText
 10
245.0
 20
127.0
 30
0.0
 40
3.6
  1
REGELWERK 34X70MM
  7
TSA-0_18
100
AcDbText
1001
TSA_
1071
        1
1071
       -1
1071
        6
1071
       97
1071
        0
1004

1040
0.0
1071
       72
  0
TEXT
  5
418
330
40F
100
AcDbEntity
  8
A--T108-
 62
     1
100
AcDbText
 10
245.0
 20
112.0
 30
0.0
 40
3.6
  1
ROCKPANELSTROOK
  7
TSA-0_18
100
AcDbText
1001
TSA_
1071
        1
1071
       -1
1071
        6
1071
       97
1071
        0
1004

1040
0.0
1071
       72
  0
TEXT
  5
419
330
40F
100
AcDbEntity
  8
A--T108-
 62
     1
100
AcDbText
 10
245.0
 20
97.0
 30
0.0
 40
3.6
  1
ROCKPANEL 6 OF 8MM
  7
TSA-0_18
100
AcDbText
1001
TSA_
1071
        1
1071
       -1
1071
        6
1071
       97
1071
        0
1004

1040
0.0
1071
       72
  0
TEXT
  5
41A
330
40F
100
AcDbEntity
  8
A--T108-
 62
     1
100
AcDbText
 10
-65.0
 20
147.0
 30
0.0
 40
3.6
  1
VERLENGDE ROCKPANEL RINGNAGEL
  7
TSA-0_18
100
AcDbText
1001
TSA_
1071
        1
1071
       -1
1071
        6
1071
       97
1071
        0
1004

1040
0.0
1071
       72
  0
INSERT
  5
425
330
40F
100
AcDbEntity
  8
A--L1---
100
AcDbBlockReference
  2
BBOLBENAM$2
 10
240.0
 20
222.0
 30
0.0
1001
TSA_
1071
        1
1071
       -1
1071
        2
1071
      255
1071
        0
1004

1040
0.0
  0
INSERT
  5
426
330
40F
100
AcDbEntity
  8
A--L1---
100
AcDbBlockReference
  2
BBOLBENAM$2
 10
240.0
 20
203.5
 30
0.0
1001
TSA_
1071
        1
1071
       -1
1071
        2
1071
      255
1071
        0
1004

1040
0.0
  0
INSERT
  5
427
330
40F
100
AcDbEntity
  8
A--L1---
100
AcDbBlockReference
  2
BBOLBENAM$2
 10
240.0
 20
199.0
 30
0.0
1001
TSA_
1071
        1
1071
       -1
1071
        2
1071
      255
1071
        0
1004

1040
0.0
  0
INSERT
  5
428
330
40F
100
AcDbEntity
  8
A--L1---
100
AcDbBlockReference
  2
BSCHROEF$2
 10
226.5
 20
28.0
 30
0.0
 50
89.99999999742762
1001
TSA_
1071
        1
1071
       -1
1071
        2
1071
      255
1071
        0
1004

1040
0.0
  0
TEXT
  5
429
330
40F
100
AcDbEntity
  8
A--T108-
 62
     1
100
AcDbText
 10
245.0
 20
-23.0
 30
0.0
 40
3.6
  1
DAMPDOORLATENDE FOLIE
  7
TSA-0_18
100
AcDbText
1001
TSA_
1071
        1
1071
       -1
1071
        6
1071
       97
1071
        0
1004

1040
0.0
1071
       72
  0
TEXT
  5
42A
330
40F
100
AcDbEntity
  8
A--T108-
 62
     1
100
AcDbText
 10
245.0
 20
-38.0
 30
0.0
 40
3.6
  1
REGELWERK 34X45MM
  7
TSA-0_18
100
AcDbText
1001
TSA_
1071
        1
1071
       -1
1071
        6
1071
       97
1071
        0
1004

1040
0.0
1071
       72
  0
TEXT
  5
42B
330
40F
100
AcDbEntity
  8
A--T108-
 62
     1
100
AcDbText
 10
245.0
 20
-53.0
 30
0.0
 40
3.6
  1
ROCKPANELSTROOK
  7
TSA-0_18
100
AcDbText
1001
TSA_
1071
        1
1071
       -1
1071
        6
1071
       97
1071
        0
1004

1040
0.0
1071
       72
  0
TEXT
  5
42C
330
40F
100
AcDbEntity
  8
A--T108-
 62
     1
100
AcDbText
 10
245.0
 20
-68.0
 30
0.0
 40
3.6
  1
ROCKPANEL 6 OF 8MM
  7
TSA-0_18
100
AcDbText
1001
TSA_
1071
        1
1071
       -1
1071
        6
1071
       97
1071
        0
1004

1040
0.0
1071
       72
  0
INSERT
  5
42D
330
40F
100
AcDbEntity
  8
A--L1---
100
AcDbBlockReference
  2
BBOLBENAM$2
 10
240.0
 20
57.0
 30
0.0
1001
TSA_
1071
        1
1071
       -1
1071
        2
1071
      255
1071
        0
1004

1040
0.0
  0
INSERT
  5
42E
330
40F
100
AcDbEntity
  8
A--L1---
100
AcDbBlockReference
  2
BBOLBENAM$2
 10
240.0
 20
38.5
 30
0.0
1001
TSA_
1071
        1
1071
       -1
1071
        2
1071
      255
1071
        0
1004

1040
0.0
  0
INSERT
  5
42F
330
40F
100
AcDbEntity
  8
A--L1---
100
AcDbBlockReference
  2
BBOLBENAM$2
 10
240.0
 20
34.0
 30
0.0
1001
TSA_
1071
        1
1071
       -1
1071
        2
1071
      255
1071
        0
1004

1040
0.0
  0
TEXT
  5
430
330
40F
100
AcDbEntity
  8
A--T108-
 62
     1
100
AcDbText
 10
-65.0
 20
-18.0
 30
0.0
 40
3.6
  1
VERLENGDE ROCKPANEL RINGNAGEL
  7
TSA-0_18
100
AcDbText
1001
TSA_
1071
        1
1071
       -1
1071
        6
1071
       97
1071
        0
1004

1040
0.0
1071
       72
  0
LWPOLYLINE
  5
431
330
40F
100
AcDbEntity
  8
A--L1---
  6
Continuous
 62
     1
 48
400.0
100
AcDbPolyline
 90
        4
 70
     1
 43
0.0
 10
191.5
 20
205.0
 10
191.5
 20
239.0
 10
261.5
 20
239.0
 10
261.5
 20
205.0
1001
TSA_
1071
        1
1071
       -1
1071
        9
1071
      121
1071
        0
1004

1040
0.0
1071
       49
  0
HATCH
  5
432
330
40F
100
AcDbEntity
  8
A--L1---
 62
     5
100
AcDbHatch
 10
0.0
 20
0.0
 30
0.0
210
0.0
220
0.0
230
1.0
  2
ANSI31
 70
     0
 71
     1
 91
        1
 92
        1
 93
        4
 72
     1
 10
191.5
 20
205.0
 11
191.5
 21
239.0
 72
     1
 10
191.5
 20
239.0
 11
261.5
 21
239.0
 72
     1
 10
261.5
 20
239.0
 11
261.5
 21
205.0
 72
     1
 10
261.5
 20
205.0
 11
191.5
 21
205.0
 97
        0
 75
     0
 76
     1
 52
90.00001494311726
 41
10.0
 77
     0
 78
     1
 53
135.0000149431173
 43
0.0
 44
0.0
 45
-22.45063444739703
 46
-22.45064615794721
 79
     0
 98
        1
 10
191.5
 20
205.0
1001
TSA_
1071
        1
1071
       -1
1071
        9
1071
      121
1071
        0
1004

1040
0.0
1071
       49
  0
INSERT
  5
433
330
40F
100
AcDbEntity
  8
A--L1---
100
AcDbBlockReference
  2
B2DUM$2
 10
191.5
 20
205.0
 30
0.0
  0
LWPOLYLINE
  5
434
330
40F
100
AcDbEntity
  8
A--L1---
  6
Continuous
 62
     2
 48
400.0
100
AcDbPolyline
 90
        4
 70
     1
 43
0.0
 10
191.5
 20
205.0
 10
191.5
 20
239.0
 10
261.5
 20
239.0
 10
261.5
 20
205.0
1001
TSA_
1071
        1
1071
       -1
1071
        8
1071
       97
1071
        0
1004

1040
0.0
1071
        2
  0
LWPOLYLINE
  5
435
330
40F
100
AcDbEntity
  8
A--L1---
  6
DASHED2
 62
     2
 48
400.0
100
AcDbPolyline
 90
        2
 70
     0
 43
0.0
 10
0.0
 20
240.0
 10
453.0
 20
240.0
1001
TSA_
1071
        1
1071
       -1
1071
        8
1071
      113
1071
        0
1004

1040
0.0
1071
       17
  0
LWPOLYLINE
  5
436
330
40F
100
AcDbEntity
  8
A--L1---
  6
Continuous
 62
     5
 48
400.0
100
AcDbPolyline
 90
        3
 70
     0
 43
0.0
 10
240.0
 20
240.0
 10
240.0
 20
87.0
 10
430.0
 20
87.0
1001
TSA_
1071
        1
1071
       -1
1071
        8
1071
      255
1071
        0
1004

1040
0.0
1071
        5
  0
LWPOLYLINE
  5
437
330
40F
100
AcDbEntity
  8
A--L1---
  6
DASHDOT2
 62
     1
 48
400.0
100
AcDbPolyline
 90
        2
 70
     1
 43
0.0
 10
242.0
 20
239.9999996499497
 42
1.0
 10
238.0
 20
240.0000003500503
 42
1.0
1001
TSA_
1071
        1
1071
       -1
1071
        9
1071
      125
1071
        0
1004

1040
0.0
1071
       34
  0
HATCH
  5
438
330
40F
100
AcDbEntity
  8
A--L1---
 62
     1
100
AcDbHatch
 10
0.0
 20
0.0
 30
0.0
210
0.0
220
0.0
230
1.0
  2
SOLID
 70
     1
 71
     1
 91
        1
 92
        1
 93
        2
 72
     2
 10
240.0
 20
240.0
 40
2.0
 50
359.9999899717978
 51
539.9999899717978
 73
     1
 72
     2
 10
240.0
 20
240.0
 40
2.0
 50
179.9999899717978
 51
359.9999899717978
 73
     1
 97
        0
 75
     0
 76
     1
 98
        1
 10
240.0
 20
240.0
1001
TSA_
1071
        1
1071
       -1
1071
        9
1071
      125
1071
        0
1004

1040
0.0
1071
       34
  0
INSERT
  5
439
330
40F
100
AcDbEntity
  8
A--L1---
100
AcDbBlockReference
  2
B2DUM$2
 10
240.0
 20
240.0
 30
0.0
  0
LWPOLYLINE
  5
43A
330
40F
100
AcDbEntity
  8
A--L1---
  6
Continuous
 62
     2
 48
400.0
100
AcDbPolyline
 90
        2
 70
     1
 43
0.0
 10
242.0
 20
239.9999996499497
 42
1.0
 10
238.0
 20
240.0000003500503
 42
1.0
1001
TSA_
1071
        1
1071
       -1
1071
        8
1071
      125
1071
        0
1004

1040
0.0
1071
        7
  0
LWPOLYLINE
  5
43B
330
40F
100
AcDbEntity
  8
A--L1---
  6
Continuous
 62
     5
 48
400.0
100
AcDbPolyline
 90
        3
 70
     0
 43
0.0
 10
206.5
 20
193.0
 10
206.5
 20
142.0
 10
-65.0
 20
142.0
1001
TSA_
1071
        1
1071
       -1
1071
        8
1071
      255
1071
        0
1004

1040
0.0
1071
        5
  0
LWPOLYLINE
  5
43C
330
40F
100
AcDbEntity
  8
A--L1---
  6
DASHDOT2
 62
     1
 48
400.0
100
AcDbPolyline
 90
        2
 70
     1
 43
0.0
 10
208.5
 20
192.9999996499497
 42
1.0
 10
204.5
 20
193.0000003500503
 42
1.0
1001
TSA_
1071
        1
1071
       -1
1071
        9
1071
      125
1071
        0
1004

1040
0.0
1071
       34
  0
HATCH
  5
43D
330
40F
100
AcDbEntity
  8
A--L1---
 62
     1
100
AcDbHatch
 10
0.0
 20
0.0
 30
0.0
210
0.0
220
0.0
230
1.0
  2
SOLID
 70
     1
 71
     1
 91
        1
 92
        1
 93
        2
 72
     2
 10
206.5
 20
193.0
 40
2.0
 50
359.9999899717978
 51
539.9999899717978
 73
     1
 72
     2
 10
206.5
 20
193.0
 40
2.0
 50
179.9999899717978
 51
359.9999899717978
 73
     1
 97
        0
 75
     0
 76
     1
 98
        1
 10
206.5
 20
193.0
1001
TSA_
1071
        1
1071
       -1
1071
        9
1071
      125
1071
        0
1004

1040
0.0
1071
       34
  0
INSERT
  5
43E
330
40F
100
AcDbEntity
  8
A--L1---
100
AcDbBlockReference
  2
B2DUM$2
 10
206.5
 20
193.0
 30
0.0
  0
LWPOLYLINE
  5
43F
330
40F
100
AcDbEntity
  8
A--L1---
  6
Continuous
 62
     2
 48
400.0
100
AcDbPolyline
 90
        2
 70
     1
 43
0.0
 10
208.5
 20
192.9999996499497
 42
1.0
 10
204.5
 20
193.0000003500503
 42
1.0
1001
TSA_
1071
        1
1071
       -1
1071
        8
1071
      125
1071
        0
1004

1040
0.0
1071
        7
  0
LWPOLYLINE
  5
440
330
40F
100
AcDbEntity
  8
A--L1---
  6
DASHED2
 62
     1
 48
400.0
100
AcDbPolyline
 90
        4
 70
     1
 43
0.0
 10
0.0
 20
245.0
 10
0.0
 20
365.0
 10
453.0
 20
365.0
 10
453.0
 20
245.0
1001
TSA_
1071
        1
1071
       -1
1071
        9
1071
      121
1071
        0
1004

1040
0.0
1071
       13
  0
HATCH
  5
441
330
40F
100
AcDbEntity
  8
A--L1---
 62
     5
100
AcDbHatch
 10
0.0
 20
0.0
 30
0.0
210
0.0
220
0.0
230
1.0
  2
ANSI31
 70
     0
 71
     1
 91
        1
 92
        1
 93
        4
 72
     1
 10
0.0
 20
245.0
 11
0.0
 21
365.0
 72
     1
 10
0.0
 20
365.0
 11
453.0
 21
365.0
 72
     1
 10
453.0
 20
365.0
 11
453.0
 21
245.0
 72
     1
 10
453.0
 20
245.0
 11
0.0
 21
245.0
 97
        0
 75
     0
 76
     1
 52
0.0
 41
13.33333333333333
 77
     0
 78
     1
 53
45.0
 43
0.0
 44
0.0
 45
-29.93418707023051
 46
29.93418707023051
 79
     0
 98
        1
 10
0.0
 20
245.0
1001
TSA_
1071
        1
1071
       -1
1071
        9
1071
      121
1071
        0
1004

1040
0.0
1071
       13
  0
LWPOLYLINE
  5
442
330
40F
100
AcDbEntity
  8
A--L1---
  6
DASHED2
 62
     1
 48
400.0
100
AcDbPolyline
 90
        4
 70
     1
 43
0.0
 10
0.0
 20
245.0
 10
0.0
 20
365.0
 10
453.0
 20
365.0
 10
453.0
 20
245.0
1001
TSA_
1071
        1
1071
       -1
1071
        9
1071
      121
1071
        0
1004

1040
0.0
1071
       20
  0
HATCH
  5
443
330
40F
100
AcDbEntity
  8
A--L1---
 62
     5
100
AcDbHatch
 10
0.0
 20
0.0
 30
0.0
210
0.0
220
0.0
230
1.0
  2
ANSI31
 70
     0
 71
     1
 91
        1
 92
        1
 93
        4
 72
     1
 10
0.0
 20
245.0
 11
0.0
 21
365.0
 72
     1
 10
0.0
 20
365.0
 11
453.0
 21
365.0
 72
     1
 10
453.0
 20
365.0
 11
453.0
 21
245.0
 72
     1
 10
453.0
 20
245.0
 11
0.0
 21
245.0
 97
        0
 75
     0
 76
     1
 52
90.00001494311726
 41
13.33333333333333
 77
     0
 78
     1
 53
135.0000149431173
 43
0.0
 44
0.0
 45
-29.93417926319604
 46
-29.93419487726295
 79
     0
 98
        1
 10
0.0
 20
245.0
1001
TSA_
1071
        1
1071
       -1
1071
        9
1071
      121
1071
        0
1004

1040
0.0
1071
       20
  0
INSERT
  5
444
330
40F
100
AcDbEntity
  8
A--L1---
100
AcDbBlockReference
  2
B2DUM$2
 10
0.0
 20
245.0
 30
0.0
  0
LWPOLYLINE
  5
445
330
40F
100
AcDbEntity
  8
A--L1---
  6
Continuous
 62
     1
 48
400.0
100
AcDbPolyline
 90
        2
 70
     0
 43
0.0
 10
0.0
 20
245.0
 10
453.0
 20
245.0
1001
TSA_
1071
        1
1071
       -1
1071
        8
1071
      121
1071
        0
1004

1040
0.0
1071
       10
  0
LWPOLYLINE
  5
446
330
40F
100
AcDbEntity
  8
A--L1---
  6
Continuous
 62
     1
 48
400.0
100
AcDbPolyline
 90
        2
 70
     0
 43
0.0
 10
0.0
 20
365.0
 10
453.0
 20
365.0
1001
TSA_
1071
        1
1071
       -1
1071
        8
1071
      121
1071
        0
1004

1040
0.0
1071
       10
  0
LWPOLYLINE
  5
447
330
40F
100
AcDbEntity
  8
A--L1---
  6
DASHDOT2
 62
     2
 48
400.0
100
AcDbPolyline
 90
        2
 70
     0
 43
0.0
 10
0.0
 20
420.0
 10
0.0
 20
168.0
1001
TSA_
1071
        1
1071
       -1
1071
        8
1071
      255
1071
        0
1004

1040
0.0
1071
       32
  0
LWPOLYLINE
  5
448
330
40F
100
AcDbEntity
  8
A--L1---
  6
DASHDOT2
 62
     2
 48
400.0
100
AcDbPolyline
 90
        2
 70
     0
 43
0.0
 10
453.0
 20
420.0
 10
453.0
 20
168.0
1001
TSA_
1071
        1
1071
       -1
1071
        8
1071
      255
1071
        0
1004

1040
0.0
1071
       32
  0
LWPOLYLINE
  5
449
330
40F
100
AcDbEntity
  8
A--L1---
  6
DASHDOT2
 62
     2
 48
400.0
100
AcDbPolyline
 90
        2
 70
     0
 43
0.0
 10
-25.0
 20
395.0
 10
478.0
 20
395.0
1001
TSA_
1071
        1
1071
       -1
1071
        8
1071
      255
1071
        0
1004

1040
0.0
1071
       32
  0
LWPOLYLINE
  5
44A
330
40F
100
AcDbEntity
  8
A--L1---
  6
DASHED2
 62
     1
 48
400.0
100
AcDbPolyline
 90
        4
 70
     1
 43
0.0
 10
453.0
 20
395.0
 10
453.0
 20
365.0
 10
0.0
 20
365.0
 10
0.0
 20
395.0
1001
TSA_
1071
        1
1071
       -1
1071
        9
1071
      125
1071
        0
1004

1040
0.0
1071
       16
  0
HATCH
  5
44B
330
40F
100
AcDbEntity
  8
A--L1---
 62
   253
100
AcDbHatch
 10
0.0
 20
0.0
 30
0.0
210
0.0
220
0.0
230
1.0
  2
SOLID
 70
     1
 71
     1
 91
        1
 92
        1
 93
        4
 72
     1
 10
453.0
 20
395.0
 11
453.0
 21
365.0
 72
     1
 10
453.0
 20
365.0
 11
0.0
 21
365.0
 72
     1
 10
0.0
 20
365.0
 11
0.0
 21
395.0
 72
     1
 10
0.0
 20
395.0
 11
453.0
 21
395.0
 97
        0
 75
     0
 76
     1
 98
        1
 10
453.0
 20
395.0
1001
TSA_
1071
        1
1071
       -1
1071
        9
1071
      125
1071
        0
1004

1040
0.0
1071
       16
  0
INSERT
  5
44C
330
40F
100
AcDbEntity
  8
A--L1---
100
AcDbBlockReference
  2
B2DUM$2
 10
453.0
 20
395.0
 30
0.0
  0
LWPOLYLINE
  5
44D
330
40F
100
AcDbEntity
  8
A--L1---
  6
DASHED2
 62
     1
 48
400.0
100
AcDbPolyline
 90
        4
 70
     1
 43
0.0
 10
453.0
 20
395.0
 10
453.0
 20
365.0
 10
0.0
 20
365.0
 10
0.0
 20
395.0
1001
TSA_
1071
        1
1071
       -1
1071
        9
1071
      127
1071
        0
1004

1040
0.0
1071
       11
  0
HATCH
  5
44E
330
40F
100
AcDbEntity
  8
A--L1---
 62
     3
100
AcDbHatch
 10
0.0
 20
0.0
 30
0.0
210
0.0
220
0.0
230
1.0
  2
SOLID
 70
     1
 71
     1
 91
        1
 92
        1
 93
        4
 72
     1
 10
453.0
 20
395.0
 11
453.0
 21
365.0
 72
     1
 10
453.0
 20
365.0
 11
0.0
 21
365.0
 72
     1
 10
0.0
 20
365.0
 11
0.0
 21
395.0
 72
     1
 10
0.0
 20
395.0
 11
453.0
 21
395.0
 97
        0
 75
     0
 76
     1
 98
        1
 10
453.0
 20
395.0
1001
TSA_
1071
        1
1071
       -1
1071
        9
1071
      127
1071
        0
1004

1040
0.0
1071
       11
  0
LWPOLYLINE
  5
44F
330
40F
100
AcDbEntity
  8
A--L1---
  6
Continuous
 62
     2
 48
400.0
100
AcDbPolyline
 90
        2
 70
     0
 43
0.0
 10
453.0
 20
365.0
 10
0.0
 20
365.0
1001
TSA_
1071
        1
1071
       -1
1071
        8
1071
      125
1071
        0
1004

1040
0.0
1071
        9
  0
LWPOLYLINE
  5
450
330
40F
100
AcDbEntity
  8
A--L1---
  6
Continuous
 62
     1
 48
400.0
100
AcDbPolyline
 90
        4
 70
     1
 43
0.0
 10
204.0
 20
40.0
 10
204.0
 20
74.0
 10
249.0
 20
74.0
 10
249.0
 20
40.0
1001
TSA_
1071
        1
1071
       -1
1071
        9
1071
      121
1071
        0
1004

1040
0.0
1071
       49
  0
HATCH
  5
451
330
40F
100
AcDbEntity
  8
A--L1---
 62
     5
100
AcDbHatch
 10
0.0
 20
0.0
 30
0.0
210
0.0
220
0.0
230
1.0
  2
ANSI31
 70
     0
 71
     1
 91
        1
 92
        1
 93
        4
 72
     1
 10
204.0
 20
40.0
 11
204.0
 21
74.0
 72
     1
 10
204.0
 20
74.0
 11
249.0
 21
74.0
 72
     1
 10
249.0
 20
74.0
 11
249.0
 21
40.0
 72
     1
 10
249.0
 20
40.0
 11
204.0
 21
40.0
 97
        0
 75
     0
 76
     1
 52
90.00001494311726
 41
10.0
 77
     0
 78
     1
 53
135.0000149431173
 43
0.0
 44
0.0
 45
-22.45063444739703
 46
-22.45064615794721
 79
     0
 98
        1
 10
204.0
 20
40.0
1001
TSA_
1071
        1
1071
       -1
1071
        9
1071
      121
1071
        0
1004

1040
0.0
1071
       49
  0
INSERT
  5
452
330
40F
100
AcDbEntity
  8
A--L1---
100
AcDbBlockReference
  2
B2DUM$2
 10
204.0
 20
40.0
 30
0.0
  0
LWPOLYLINE
  5
453
330
40F
100
AcDbEntity
  8
A--L1---
  6
Continuous
 62
     2
 48
400.0
100
AcDbPolyline
 90
        4
 70
     1
 43
0.0
 10
204.0
 20
40.0
 10
204.0
 20
74.0
 10
249.0
 20
74.0
 10
249.0
 20
40.0
1001
TSA_
1071
        1
1071
       -1
1071
        8
1071
       97
1071
        0
1004

1040
0.0
1071
        2
  0
LWPOLYLINE
  5
454
330
40F
100
AcDbEntity
  8
A--L1---
  6
DASHED2
 62
     2
 48
400.0
100
AcDbPolyline
 90
        2
 70
     0
 43
0.0
 10
0.0
 20
75.0
 10
453.0
 20
75.0
1001
TSA_
1071
        1
1071
       -1
1071
        8
1071
      113
1071
        0
1004

1040
0.0
1071
       17
  0
LWPOLYLINE
  5
455
330
40F
100
AcDbEntity
  8
A--L1---
  6
Continuous
 62
     5
 48
400.0
100
AcDbPolyline
 90
        3
 70
     0
 43
0.0
 10
240.0
 20
75.0
 10
240.0
 20
-78.0
 10
430.0
 20
-78.0
1001
TSA_
1071
        1
1071
       -1
1071
        8
1071
      255
1071
        0
1004

1040
0.0
1071
        5
  0
LWPOLYLINE
  5
456
330
40F
100
AcDbEntity
  8
A--L1---
  6
DASHDOT2
 62
     1
 48
400.0
100
AcDbPolyline
 90
        2
 70
     1
 43
0.0
 10
242.0
 20
74.99999964994971
 42
1.0
 10
238.0
 20
75.00000035005029
 42
1.0
1001
TSA_
1071
        1
1071
       -1
1071
        9
1071
      125
1071
        0
1004

1040
0.0
1071
       34
  0
HATCH
  5
457
330
40F
100
AcDbEntity
  8
A--L1---
 62
     1
100
AcDbHatch
 10
0.0
 20
0.0
 30
0.0
210
0.0
220
0.0
230
1.0
  2
SOLID
 70
     1
 71
     1
 91
        1
 92
        1
 93
        2
 72
     2
 10
240.0
 20
75.0
 40
2.0
 50
359.9999899717978
 51
539.9999899717978
 73
     1
 72
     2
 10
240.0
 20
75.0
 40
2.0
 50
179.9999899717978
 51
359.9999899717978
 73
     1
 97
        0
 75
     0
 76
     1
 98
        1
 10
240.0
 20
75.0
1001
TSA_
1071
        1
1071
       -1
1071
        9
1071
      125
1071
        0
1004

1040
0.0
1071
       34
  0
INSERT
  5
458
330
40F
100
AcDbEntity
  8
A--L1---
100
AcDbBlockReference
  2
B2DUM$2
 10
240.0
 20
75.0
 30
0.0
  0
LWPOLYLINE
  5
459
330
40F
100
AcDbEntity
  8
A--L1---
  6
Continuous
 62
     2
 48
400.0
100
AcDbPolyline
 90
        2
 70
     1
 43
0.0
 10
242.0
 20
74.99999964994971
 42
1.0
 10
238.0
 20
75.00000035005029
 42
1.0
1001
TSA_
1071
        1
1071
       -1
1071
        8
1071
      125
1071
        0
1004

1040
0.0
1071
        7
  0
LWPOLYLINE
  5
45A
330
40F
100
AcDbEntity
  8
A--L1---
  6
Continuous
 62
     5
 48
400.0
100
AcDbPolyline
 90
        3
 70
     0
 43
0.0
 10
226.5
 20
28.0
 10
226.5
 20
-23.0
 10
-65.0
 20
-23.0
1001
TSA_
1071
        1
1071
       -1
1071
        8
1071
      255
1071
        0
1004

1040
0.0
1071
        5
  0
LWPOLYLINE
  5
45B
330
40F
100
AcDbEntity
  8
A--L1---
  6
DASHDOT2
 62
     1
 48
400.0
100
AcDbPolyline
 90
        2
 70
     1
 43
0.0
 10
228.5
 20
27.99999964994971
 42
1.0
 10
224.5
 20
28.00000035005029
 42
1.0
1001
TSA_
1071
        1
1071
       -1
1071
        9
1071
      125
1071
        0
1004

1040
0.0
1071
       34
  0
HATCH
  5
45C
330
40F
100
AcDbEntity
  8
A--L1---
 62
     1
100
AcDbHatch
 10
0.0
 20
0.0
 30
0.0
210
0.0
220
0.0
230
1.0
  2
SOLID
 70
     1
 71
     1
 91
        1
 92
        1
 93
        2
 72
     2
 10
226.5
 20
28.0
 40
2.0
 50
359.9999899717978
 51
539.9999899717978
 73
     1
 72
     2
 10
226.5
 20
28.0
 40
2.0
 50
179.9999899717978
 51
359.9999899717978
 73
     1
 97
        0
 75
     0
 76
     1
 98
        1
 10
226.5
 20
28.0
1001
TSA_
1071
        1
1071
       -1
1071
        9
1071
      125
1071
        0
1004

1040
0.0
1071
       34
  0
INSERT
  5
45D
330
40F
100
AcDbEntity
  8
A--L1---
100
AcDbBlockReference
  2
B2DUM$2
 10
226.5
 20
28.0
 30
0.0
  0
LWPOLYLINE
  5
45E
330
40F
100
AcDbEntity
  8
A--L1---
  6
Continuous
 62
     2
 48
400.0
100
AcDbPolyline
 90
        2
 70
     1
 43
0.0
 10
228.5
 20
27.99999964994971
 42
1.0
 10
224.5
 20
28.00000035005029
 42
1.0
1001
TSA_
1071
        1
1071
       -1
1071
        8
1071
      125
1071
        0
1004

1040
0.0
1071
        7
  0
LWPOLYLINE
  5
45F
330
40F
100
AcDbEntity
  8
A--L1---
  6
DASHDOT2
 62
     2
 48
400.0
100
AcDbPolyline
 90
        2
 70
     0
 43
0.0
 10
0.0
 20
100.0
 10
0.0
 20
3.0
1001
TSA_
1071
        1
1071
       -1
1071
        8
1071
      255
1071
        0
1004

1040
0.0
1071
       32
  0
LWPOLYLINE
  5
460
330
40F
100
AcDbEntity
  8
A--L1---
  6
DASHDOT2
 62
     2
 48
400.0
100
AcDbPolyline
 90
        2
 70
     0
 43
0.0
 10
453.0
 20
100.0
 10
453.0
 20
3.0
1001
TSA_
1071
        1
1071
       -1
1071
        8
1071
      255
1071
        0
1004

1040
0.0
1071
       32
  0
LWPOLYLINE
  5
461
330
40F
100
AcDbEntity
  8
A--L1---
  6
DOT2
 62
     1
 48
400.0
100
AcDbPolyline
 90
        4
 70
     1
 43
0.0
 10
0.0
 20
193.0
 10
221.5
 20
193.0
 10
221.5
 20
199.0
 10
0.0
 20
199.0
1001
TSA_
1071
        1
1071
       -1
1071
        9
1071
      113
1071
        0
1004

1040
0.0
1071
       29
  0
HATCH
  5
462
330
40F
100
AcDbEntity
  8
A--L1---
 62
     5
100
AcDbHatch
 10
0.0
 20
0.0
 30
0.0
210
0.0
220
0.0
230
1.0
  2
ANSI31
 70
     0
 71
     1
 91
        1
 92
        1
 93
        4
 72
     1
 10
0.0
 20
193.0
 11
221.5
 21
193.0
 72
     1
 10
221.5
 20
193.0
 11
221.5
 21
199.0
 72
     1
 10
221.5
 20
199.0
 11
0.0
 21
199.0
 72
     1
 10
0.0
 20
199.0
 11
0.0
 21
193.0
 97
        0
 75
     0
 76
     1
 52
45.00000747155863
 41
10.66666666666667
 77
     0
 78
     1
 53
90.00000747155863
 43
0.0
 44
0.0
 45
-33.86666666666638
 46
-0.0000044163250372
 79
     0
 98
        1
 10
0.0
 20
193.0
1001
TSA_
1071
        1
1071
       -1
1071
        9
1071
      113
1071
        0
1004

1040
0.0
1071
       29
  0
INSERT
  5
463
330
40F
100
AcDbEntity
  8
A--L1---
100
AcDbBlockReference
  2
B2DUM$2
 10
0.0
 20
193.0
 30
0.0
  0
LWPOLYLINE
  5
464
330
40F
100
AcDbEntity
  8
A--L1---
  6
Continuous
 62
     1
 48
400.0
100
AcDbPolyline
 90
        4
 70
     0
 43
0.0
 10
0.0
 20
193.0
 10
221.5
 20
193.0
 10
221.5
 20
199.0
 10
0.0
 20
199.0
1001
TSA_
1071
        1
1071
       -1
1071
        8
1071
      125
1071
        0
1004

1040
0.0
1071
       10
  0
LWPOLYLINE
  5
465
330
40F
100
AcDbEntity
  8
A--L1---
  6
DOT2
 62
     1
 48
400.0
100
AcDbPolyline
 90
        4
 70
     1
 43
0.0
 10
186.5
 20
199.0
 10
186.5
 20
205.0
 10
266.5
 20
205.0
 10
266.5
 20
199.0
1001
TSA_
1071
        1
1071
       -1
1071
        9
1071
      113
1071
        0
1004

1040
0.0
1071
       29
  0
HATCH
  5
466
330
40F
100
AcDbEntity
  8
A--L1---
 62
     5
100
AcDbHatch
 10
0.0
 20
0.0
 30
0.0
210
0.0
220
0.0
230
1.0
  2
ANSI31
 70
     0
 71
     1
 91
        1
 92
        1
 93
        4
 72
     1
 10
186.5
 20
199.0
 11
186.5
 21
205.0
 72
     1
 10
186.5
 20
205.0
 11
266.5
 21
205.0
 72
     1
 10
266.5
 20
205.0
 11
266.5
 21
199.0
 72
     1
 10
266.5
 20
199.0
 11
186.5
 21
199.0
 97
        0
 75
     0
 76
     1
 52
45.00000747155863
 41
10.66666666666667
 77
     0
 78
     1
 53
90.00000747155863
 43
0.0
 44
0.0
 45
-33.86666666666638
 46
-0.0000044163250372
 79
     0
 98
        1
 10
186.5
 20
199.0
1001
TSA_
1071
        1
1071
       -1
1071
        9
1071
      113
1071
        0
1004

1040
0.0
1071
       29
  0
INSERT
  5
467
330
40F
100
AcDbEntity
  8
A--L1---
100
AcDbBlockReference
  2
B2DUM$2
 10
186.5
 20
199.0
 30
0.0
  0
LWPOLYLINE
  5
468
330
40F
100
AcDbEntity
  8
A--L1---
  6
Continuous
 62
     1
 48
400.0
100
AcDbPolyline
 90
        4
 70
     1
 43
0.0
 10
186.5
 20
199.0
 10
186.5
 20
205.0
 10
266.5
 20
205.0
 10
266.5
 20
199.0
1001
TSA_
1071
        1
1071
       -1
1071
        8
1071
      125
1071
        0
1004

1040
0.0
1071
       10
  0
LWPOLYLINE
  5
469
330
40F
100
AcDbEntity
  8
A--L1---
  6
DOT2
 62
     1
 48
400.0
100
AcDbPolyline
 90
        4
 70
     1
 43
0.0
 10
0.0
 20
28.0
 10
453.0
 20
28.0
 10
453.0
 20
34.0
 10
0.0
 20
34.0
1001
TSA_
1071
        1
1071
       -1
1071
        9
1071
      113
1071
        0
1004

1040
0.0
1071
       29
  0
HATCH
  5
46A
330
40F
100
AcDbEntity
  8
A--L1---
 62
     5
100
AcDbHatch
 10
0.0
 20
0.0
 30
0.0
210
0.0
220
0.0
230
1.0
  2
ANSI31
 70
     0
 71
     1
 91
        1
 92
        1
 93
        4
 72
     1
 10
0.0
 20
28.0
 11
453.0
 21
28.0
 72
     1
 10
453.0
 20
28.0
 11
453.0
 21
34.0
 72
     1
 10
453.0
 20
34.0
 11
0.0
 21
34.0
 72
     1
 10
0.0
 20
34.0
 11
0.0
 21
28.0
 97
        0
 75
     0
 76
     1
 52
45.00000747155863
 41
10.66666666666667
 77
     0
 78
     1
 53
90.00000747155863
 43
0.0
 44
0.0
 45
-33.86666666666638
 46
-0.0000044163250372
 79
     0
 98
        1
 10
0.0
 20
28.0
1001
TSA_
1071
        1
1071
       -1
1071
        9
1071
      113
1071
        0
1004

1040
0.0
1071
       29
  0
INSERT
  5
46B
330
40F
100
AcDbEntity
  8
A--L1---
100
AcDbBlockReference
  2
B2DUM$2
 10
0.0
 20
28.0
 30
0.0
  0
LWPOLYLINE
  5
46C
330
40F
100
AcDbEntity
  8
A--L1---
  6
Continuous
 62
     1
 48
400.0
100
AcDbPolyline
 90
        4
 70
     0
 43
0.0
 10
0.0
 20
28.0
 10
453.0
 20
28.0
 10
453.0
 20
34.0
 10
0.0
 20
34.0
1001
TSA_
1071
        1
1071
       -1
1071
        8
1071
      125
1071
        0
1004

1040
0.0
1071
       10
  0
LWPOLYLINE
  5
46D
330
40F
100
AcDbEntity
  8
A--L1---
  6
DOT2
 62
     1
 48
400.0
100
AcDbPolyline
 90
        4
 70
     1
 43
0.0
 10
186.5
 20
34.0
 10
186.5
 20
40.0
 10
266.5
 20
40.0
 10
266.5
 20
34.0
1001
TSA_
1071
        1
1071
       -1
1071
        9
1071
      113
1071
        0
1004

1040
0.0
1071
       29
  0
HATCH
  5
46E
330
40F
100
AcDbEntity
  8
A--L1---
 62
     5
100
AcDbHatch
 10
0.0
 20
0.0
 30
0.0
210
0.0
220
0.0
230
1.0
  2
ANSI31
 70
     0
 71
     1
 91
        1
 92
        1
 93
        4
 72
     1
 10
186.5
 20
34.0
 11
186.5
 21
40.0
 72
     1
 10
186.5
 20
40.0
 11
266.5
 21
40.0
 72
     1
 10
266.5
 20
40.0
 11
266.5
 21
34.0
 72
     1
 10
266.5
 20
34.0
 11
186.5
 21
34.0
 97
        0
 75
     0
 76
     1
 52
45.00000747155863
 41
10.66666666666667
 77
     0
 78
     1
 53
90.00000747155863
 43
0.0
 44
0.0
 45
-33.86666666666638
 46
-0.0000044163250372
 79
     0
 98
        1
 10
186.5
 20
34.0
1001
TSA_
1071
        1
1071
       -1
1071
        9
1071
      113
1071
        0
1004

1040
0.0
1071
       29
  0
INSERT
  5
46F
330
40F
100
AcDbEntity
  8
A--L1---
100
AcDbBlockReference
  2
B2DUM$2
 10
186.5
 20
34.0
 30
0.0
  0
LWPOLYLINE
  5
470
330
40F
100
AcDbEntity
  8
A--L1---
  6
Continuous
 62
     1
 48
400.0
100
AcDbPolyline
 90
        4
 70
     1
 43
0.0
 10
186.5
 20
34.0
 10
186.5
 20
40.0
 10
266.5
 20
40.0
 10
266.5
 20
34.0
1001
TSA_
1071
        1
1071
       -1
1071
        8
1071
      125
1071
        0
1004

1040
0.0
1071
       10
  0
LWPOLYLINE
  5
471
330
40F
100
AcDbEntity
  8
A--L1---
  6
DOT2
 62
     1
 48
400.0
100
AcDbPolyline
 90
        4
 70
     1
 43
0.0
 10
453.0
 20
199.0
 10
231.5
 20
199.0
 10
231.5
 20
193.0
 10
453.0
 20
193.0
1001
TSA_
1071
        1
1071
       -1
1071
        9
1071
      113
1071
        0
1004

1040
0.0
1071
       29
  0
HATCH
  5
472
330
40F
100
AcDbEntity
  8
A--L1---
 62
     5
100
AcDbHatch
 10
0.0
 20
0.0
 30
0.0
210
0.0
220
0.0
230
1.0
  2
ANSI31
 70
     0
 71
     1
 91
        1
 92
        1
 93
        4
 72
     1
 10
453.0
 20
199.0
 11
231.5
 21
199.0
 72
     1
 10
231.5
 20
199.0
 11
231.5
 21
193.0
 72
     1
 10
231.5
 20
193.0
 11
453.0
 21
193.0
 72
     1
 10
453.0
 20
193.0
 11
453.0
 21
199.0
 97
        0
 75
     0
 76
     1
 52
45.00000747155863
 41
10.66666666666667
 77
     0
 78
     1
 53
90.00000747155863
 43
0.0
 44
0.0
 45
-33.86666666666638
 46
-0.0000044163250372
 79
     0
 98
        1
 10
453.0
 20
199.0
1001
TSA_
1071
        1
1071
       -1
1071
        9
1071
      113
1071
        0
1004

1040
0.0
1071
       29
  0
INSERT
  5
473
330
40F
100
AcDbEntity
  8
A--L1---
100
AcDbBlockReference
  2
B2DUM$2
 10
453.0
 20
199.0
 30
0.0
  0
LWPOLYLINE
  5
474
330
40F
100
AcDbEntity
  8
A--L1---
  6
Continuous
 62
     1
 48
400.0
100
AcDbPolyline
 90
        4
 70
     0
 43
0.0
 10
453.0
 20
199.0
 10
231.5
 20
199.0
 10
231.5
 20
193.0
 10
453.0
 20
193.0
1001
TSA_
1071
        1
1071
       -1
1071
        8
1071
      125
1071
        0
1004

1040
0.0
1071
       10
  0
ENDBLK
  5
476
330
40F
100
AcDbEntity
  8
0
100
AcDbBlockEnd
  0
BLOCK
  5
412
330
410
100
AcDbEntity
  8
0
100
AcDbBlockBegin
  2
BSCHROEF$2
 70
     0
 10
0.0
 20
0.0
 30
0.0
  3
BSCHROEF$2
  1

  0
LWPOLYLINE
  5
411
330
410
100
AcDbEntity
  8
A--L1---
  6
Continuous
 62
     5
 48
400.0
100
AcDbPolyline
 90
       12
 70
     0
 43
0.0
 10
4.0
 20
2.0
 10
8.0
 20
-2.0
 10
12.0
 20
2.0
 10
16.0
 20
-2.0
 10
20.0
 20
2.0
 10
24.0
 20
-2.0
 10
28.0
 20
2.0
 10
30.0
 20
0.0
 10
0.0
 20
0.0
 10
-2.0
 20
2.5
 10
-2.0
 20
-2.5
 10
0.0
 20
0.0
1001
TSA_
1071
        1
1071
       -1
1071
        8
1071
      255
1071
        0
1004

1040
0.0
1071
        5
  0
ENDBLK
  5
413
330
410
100
AcDbEntity
  8
0
100
AcDbBlockEnd
  0
BLOCK
  5
423
330
41B
100
AcDbEntity
  8
0
100
AcDbBlockBegin
  2
BBOLBENAM$2
 70
     0
 10
0.0
 20
0.0
 30
0.0
  3
BBOLBENAM$2
  1

  0
LWPOLYLINE
  5
41C
330
41B
100
AcDbEntity
  8
A--L1---
  6
DASHDOT2
 62
     1
 48
400.0
100
AcDbPolyline
 90
        2
 70
     1
 43
0.0
 10
1.999999999999969
 20
-0.0000003500502928
 42
1.0
 10
-1.999999999999969
 20
0.0000003500502928
 42
1.0
1001
TSA_
1071
        1
1071
       -1
1071
        9
1071
      125
1071
        0
1004

1040
0.0
1071
       34
  0
HATCH
  5
41D
330
41B
100
AcDbEntity
  8
A--L1---
 62
     1
100
AcDbHatch
 10
0.0
 20
0.0
 30
0.0
210
0.0
220
0.0
230
1.0
  2
SOLID
 70
     1
 71
     1
 91
        1
 92
        1
 93
        2
 72
     2
 10
0.0
 20
0.0
 40
2.0
 50
359.9999899717978
 51
539.9999899717978
 73
     1
 72
     2
 10
0.0
 20
0.0
 40
2.0
 50
179.9999899717978
 51
359.9999899717978
 73
     1
 97
        0
 75
     0
 76
     1
 98
        1
 10
1.999999999999969
 20
-0.0000003500502928
1001
TSA_
1071
        1
1071
       -1
1071
        9
1071
      125
1071
        0
1004

1040
0.0
1071
       34
  0
INSERT
  5
421
330
41B
100
AcDbEntity
  8
A--L1---
100
AcDbBlockReference
  2
B2DUM$2
 10
1.999999999999969
 20
-0.0000003500502928
 30
0.0
  0
LWPOLYLINE
  5
422
330
41B
100
AcDbEntity
  8
A--L1---
  6
Continuous
 62
     2
 48
400.0
100
AcDbPolyline
 90
        2
 70
     1
 43
0.0
 10
1.999999999999969
 20
-0.0000003500502928
 42
1.0
 10
-1.999999999999969
 20
0.0000003500502928
 42
1.0
1001
TSA_
1071
        1
1071
       -1
1071
        8
1071
      125
1071
        0
1004

1040
0.0
1071
        7
  0
ENDBLK
  5
424
330
41B
100
AcDbEntity
  8
0
100
AcDbBlockEnd
  0
BLOCK
  5
41F
330
41E
100
AcDbEntity
  8
0
100
AcDbBlockBegin
  2
B2DUM$2
 70
     0
 10
0.0
 20
0.0
 30
0.0
  3
B2DUM$2
  1

  0
ENDBLK
  5
420
330
41E
100
AcDbEntity
  8
0
100
AcDbBlockEnd
  0
BLOCK
  5
4EE
330
47F
100
AcDbEntity
  8
0
100
AcDbBlockBegin
  2
DZSD203$2
 70
     0
 10
0.0
 20
0.0
 30
0.0
  3
DZSD203$2
  1

  0
INSERT
  5
4E8
330
47F
100
AcDbEntity
  8
A--L1---
100
AcDbBlockReference
  2
DDET1-203$2
 10
335.0
 20
607.5
 30
0.0
  0
LWPOLYLINE
  5
4E9
330
47F
100
AcDbEntity
  8
A--L107-
  6
Continuous
 62
     1
 48
400.0
100
AcDbPolyline
 90
        2
 70
     0
 43
0.0
 10
1000.0
 20
295.0
 10
100.0
 20
295.0
1001
TSA_
1071
        1
1071
        2
1071
        8
1071
      255
1071
        0
1004

1040
0.0
1071
        1
  0
LWPOLYLINE
  5
4EA
330
47F
100
AcDbEntity
  8
A--L107-
  6
Continuous
 62
     1
 48
400.0
100
AcDbPolyline
 90
        2
 70
     0
 43
0.0
 10
1000.0
 20
172.5
 10
100.0
 20
172.5
1001
TSA_
1071
        1
1071
        3
1071
        8
1071
      255
1071
        0
1004

1040
0.0
1071
        1
  0
TEXT
  5
4EB
330
47F
100
AcDbEntity
  8
A--T1---
 62
     3
100
AcDbText
 10
120.0
 20
215.0
 30
0.0
 40
14.0
  1
Detail: 203
  7
TSA-7
100
AcDbText
1001
TSA_
1071
        1
1071
        4
1071
        6
1071
      127
1071
        0
1004

1040
0.0
1071
        7
  0
LWPOLYLINE
  5
4EC
330
47F
100
AcDbEntity
  8
A--L98--
  6
Continuous
 62
     1
 48
400.0
100
AcDbPolyline
 90
        4
 70
     1
 43
0.0
 10
0.0
 20
0.0
 10
0.0
 20
1485.0
 10
1050.0
 20
1485.0
 10
1050.0
 20
0.0
1001
TSA_
1071
        1
1071
        5
1071
        8
1071
      255
1071
        0
1004

1040
0.0
1071
        1
  0
LWPOLYLINE
  5
4ED
330
47F
100
AcDbEntity
  8
A--L98--
  6
Continuous
 62
     1
 48
400.0
100
AcDbPolyline
 90
        4
 70
     1
 43
0.0
 10
100.0
 20
172.5
 10
100.0
 20
1435.0
 10
1000.0
 20
1435.0
 10
1000.0
 20
172.5
1001
TSA_
1071
        1
1071
        6
1071
        8
1071
      255
1071
        0
1004

1040
0.0
1071
        1
  0
ENDBLK
  5
4EF
330
47F
100
AcDbEntity
  8
0
100
AcDbBlockEnd
  0
BLOCK
  5
4E6
330
480
100
AcDbEntity
  8
0
100
AcDbBlockBegin
  2
DDET1-203$2
 70
     0
 10
0.0
 20
0.0
 30
0.0
  3
DDET1-203$2
  1

  0
INSERT
  5
485
330
480
100
AcDbEntity
  8
A--L1---
100
AcDbBlockReference
  2
DSCHROEF$2
 10
206.5
 20
193.0
 30
0.0
 50
89.99999999742762
1001
TSA_
1071
        1
1071
       -1
1071
        2
1071
      255
1071
        0
1004

1040
0.0
  0
INSERT
  5
486
330
480
100
AcDbEntity
  8
A--L1---
100
AcDbBlockReference
  2
DSCHROEF$2
 10
246.5
 20
193.0
 30
0.0
 42
-1.0
 50
89.99999999742762
1001
TSA_
1071
        1
1071
       -1
1071
        2
1071
      255
1071
        0
1004

1040
0.0
  0
TEXT
  5
487
330
480
100
AcDbEntity
  8
A--T108-
 62
     1
100
AcDbText
 10
245.0
 20
142.0
 30
0.0
 40
3.6
  1
DAMPDOORLATENDE FOLIE
  7
TSA-0_18
100
AcDbText
1001
TSA_
1071
        1
1071
       -1
1071
        6
1071
       97
1071
        0
1004

1040
0.0
1071
       72
  0
TEXT
  5
488
330
480
100
AcDbEntity
  8
A--T108-
 62
     1
100
AcDbText
 10
245.0
 20
127.0
 30
0.0
 40
3.6
  1
REGELWERK 34X70MM
  7
TSA-0_18
100
AcDbText
1001
TSA_
1071
        1
1071
       -1
1071
        6
1071
       97
1071
        0
1004

1040
0.0
1071
       72
  0
TEXT
  5
489
330
480
100
AcDbEntity
  8
A--T108-
 62
     1
100
AcDbText
 10
245.0
 20
112.0
 30
0.0
 40
3.6
  1
ROCKPANELSTROOK
  7
TSA-0_18
100
AcDbText
1001
TSA_
1071
        1
1071
       -1
1071
        6
1071
       97
1071
        0
1004

1040
0.0
1071
       72
  0
TEXT
  5
48A
330
480
100
AcDbEntity
  8
A--T108-
 62
     1
100
AcDbText
 10
245.0
 20
97.0
 30
0.0
 40
3.6
  1
ROCKPANEL 6 OF 8MM
  7
TSA-0_18
100
AcDbText
1001
TSA_
1071
        1
1071
       -1
1071
        6
1071
       97
1071
        0
1004

1040
0.0
1071
       72
  0
TEXT
  5
48B
330
480
100
AcDbEntity
  8
A--T108-
 62
     1
100
AcDbText
 10
-65.0
 20
147.0
 30
0.0
 40
3.6
  1
VERLENGDE ROCKPANEL RINGNAGEL
  7
TSA-0_18
100
AcDbText
1001
TSA_
1071
        1
1071
       -1
1071
        6
1071
       97
1071
        0
1004

1040
0.0
1071
       72
  0
INSERT
  5
496
330
480
100
AcDbEntity
  8
A--L1---
100
AcDbBlockReference
  2
DBOLBENAM$2
 10
240.0
 20
222.0
 30
0.0
1001
TSA_
1071
        1
1071
       -1
1071
        2
1071
      255
1071
        0
1004

1040
0.0
  0
INSERT
  5
497
330
480
100
AcDbEntity
  8
A--L1---
100
AcDbBlockReference
  2
DBOLBENAM$2
 10
240.0
 20
203.5
 30
0.0
1001
TSA_
1071
        1
1071
       -1
1071
        2
1071
      255
1071
        0
1004

1040
0.0
  0
INSERT
  5
498
330
480
100
AcDbEntity
  8
A--L1---
100
AcDbBlockReference
  2
DBOLBENAM$2
 10
240.0
 20
199.0
 30
0.0
1001
TSA_
1071
        1
1071
       -1
1071
        2
1071
      255
1071
        0
1004

1040
0.0
  0
INSERT
  5
499
330
480
100
AcDbEntity
  8
A--L1---
100
AcDbBlockReference
  2
DSCHROEF$2
 10
226.5
 20
28.0
 30
0.0
 50
89.99999999742762
1001
TSA_
1071
        1
1071
       -1
1071
        2
1071
      255
1071
        0
1004

1040
0.0
  0
TEXT
  5
49A
330
480
100
AcDbEntity
  8
A--T108-
 62
     1
100
AcDbText
 10
245.0
 20
-23.0
 30
0.0
 40
3.6
  1
DAMPDOORLATENDE FOLIE
  7
TSA-0_18
100
AcDbText
1001
TSA_
1071
        1
1071
       -1
1071
        6
1071
       97
1071
        0
1004

1040
0.0
1071
       72
  0
TEXT
  5
49B
330
480
100
AcDbEntity
  8
A--T108-
 62
     1
100
AcDbText
 10
245.0
 20
-38.0
 30
0.0
 40
3.6
  1
REGELWERK 34X45MM
  7
TSA-0_18
100
AcDbText
1001
TSA_
1071
        1
1071
       -1
1071
        6
1071
       97
1071
        0
1004

1040
0.0
1071
       72
  0
TEXT
  5
49C
330
480
100
AcDbEntity
  8
A--T108-
 62
     1
100
AcDbText
 10
245.0
 20
-53.0
 30
0.0
 40
3.6
  1
ROCKPANELSTROOK
  7
TSA-0_18
100
AcDbText
1001
TSA_
1071
        1
1071
       -1
1071
        6
1071
       97
1071
        0
1004

1040
0.0
1071
       72
  0
TEXT
  5
49D
330
480
100
AcDbEntity
  8
A--T108-
 62
     1
100
AcDbText
 10
245.0
 20
-68.0
 30
0.0
 40
3.6
  1
ROCKPANEL 6 OF 8MM
  7
TSA-0_18
100
AcDbText
1001
TSA_
1071
        1
1071
       -1
1071
        6
1071
       97
1071
        0
1004

1040
0.0
1071
       72
  0
INSERT
  5
49E
330
480
100
AcDbEntity
  8
A--L1---
100
AcDbBlockReference
  2
DBOLBENAM$2
 10
240.0
 20
57.0
 30
0.0
1001
TSA_
1071
        1
1071
       -1
1071
        2
1071
      255
1071
        0
1004

1040
0.0
  0
INSERT
  5
49F
330
480
100
AcDbEntity
  8
A--L1---
100
AcDbBlockReference
  2
DBOLBENAM$2
 10
240.0
 20
38.5
 30
0.0
1001
TSA_
1071
        1
1071
       -1
1071
        2
1071
      255
1071
        0
1004

1040
0.0
  0
INSERT
  5
4A0
330
480
100
AcDbEntity
  8
A--L1---
100
AcDbBlockReference
  2
DBOLBENAM$2
 10
240.0
 20
34.0
 30
0.0
1001
TSA_
1071
        1
1071
       -1
1071
        2
1071
      255
1071
        0
1004

1040
0.0
  0
TEXT
  5
4A1
330
480
100
AcDbEntity
  8
A--T108-
 62
     1
100
AcDbText
 10
-65.0
 20
-18.0
 30
0.0
 40
3.6
  1
VERLENGDE ROCKPANEL RINGNAGEL
  7
TSA-0_18
100
AcDbText
1001
TSA_
1071
        1
1071
       -1
1071
        6
1071
       97
1071
        0
1004

1040
0.0
1071
       72
  0
LWPOLYLINE
  5
4A2
330
480
100
AcDbEntity
  8
A--L1---
  6
Continuous
 62
     1
 48
400.0
100
AcDbPolyline
 90
        4
 70
     1
 43
0.0
 10
191.5
 20
205.0
 10
191.5
 20
239.0
 10
261.5
 20
239.0
 10
261.5
 20
205.0
1001
TSA_
1071
        1
1071
       -1
1071
        9
1071
      121
1071
        0
1004

1040
0.0
1071
       49
  0
HATCH
  5
4A3
330
480
100
AcDbEntity
  8
A--L1---
 62
     5
100
AcDbHatch
 10
0.0
 20
0.0
 30
0.0
210
0.0
220
0.0
230
1.0
  2
ANSI31
 70
     0
 71
     1
 91
        1
 92
        1
 93
        4
 72
     1
 10
191.5
 20
205.0
 11
191.5
 21
239.0
 72
     1
 10
191.5
 20
239.0
 11
261.5
 21
239.0
 72
     1
 10
261.5
 20
239.0
 11
261.5
 21
205.0
 72
     1
 10
261.5
 20
205.0
 11
191.5
 21
205.0
 97
        0
 75
     0
 76
     1
 52
90.00001494311726
 41
3.0
 77
     0
 78
     1
 53
135.0000149431173
 43
0.0
 44
0.0
 45
-6.735190334219109
 46
-6.735193847384162
 79
     0
 98
        1
 10
191.5
 20
205.0
1001
TSA_
1071
        1
1071
       -1
1071
        9
1071
      121
1071
        0
1004

1040
0.0
1071
       49
  0
INSERT
  5
4A4
330
480
100
AcDbEntity
  8
A--L1---
100
AcDbBlockReference
  2
D2DUM$2
 10
191.5
 20
205.0
 30
0.0
  0
LWPOLYLINE
  5
4A5
330
480
100
AcDbEntity
  8
A--L1---
  6
Continuous
 62
     2
 48
400.0
100
AcDbPolyline
 90
        4
 70
     1
 43
0.0
 10
191.5
 20
205.0
 10
191.5
 20
239.0
 10
261.5
 20
239.0
 10
261.5
 20
205.0
1001
TSA_
1071
        1
1071
       -1
1071
        8
1071
       97
1071
        0
1004

1040
0.0
1071
        2
  0
LWPOLYLINE
  5
4A6
330
480
100
AcDbEntity
  8
A--L1---
  6
DASHED2
 62
     2
 48
400.0
100
AcDbPolyline
 90
        2
 70
     0
 43
0.0
 10
0.0
 20
240.0
 10
453.0
 20
240.0
1001
TSA_
1071
        1
1071
       -1
1071
        8
1071
      113
1071
        0
1004

1040
0.0
1071
       17
  0
LWPOLYLINE
  5
4A7
330
480
100
AcDbEntity
  8
A--L1---
  6
Continuous
 62
     5
 48
400.0
100
AcDbPolyline
 90
        3
 70
     0
 43
0.0
 10
240.0
 20
240.0
 10
240.0
 20
87.0
 10
430.0
 20
87.0
1001
TSA_
1071
        1
1071
       -1
1071
        8
1071
      255
1071
        0
1004

1040
0.0
1071
        5
  0
LWPOLYLINE
  5
4A8
330
480
100
AcDbEntity
  8
A--L1---
  6
DASHDOT2
 62
     1
 48
400.0
100
AcDbPolyline
 90
        2
 70
     1
 43
0.0
 10
242.0
 20
239.9999996499497
 42
1.0
 10
238.0
 20
240.0000003500503
 42
1.0
1001
TSA_
1071
        1
1071
       -1
1071
        9
1071
      125
1071
        0
1004

1040
0.0
1071
       34
  0
HATCH
  5
4A9
330
480
100
AcDbEntity
  8
A--L1---
 62
     1
100
AcDbHatch
 10
0.0
 20
0.0
 30
0.0
210
0.0
220
0.0
230
1.0
  2
SOLID
 70
     1
 71
     1
 91
        1
 92
        1
 93
        2
 72
     2
 10
240.0
 20
240.0
 40
2.0
 50
359.9999899717978
 51
539.9999899717978
 73
     1
 72
     2
 10
240.0
 20
240.0
 40
2.0
 50
179.9999899717978
 51
359.9999899717978
 73
     1
 97
        0
 75
     0
 76
     1
 98
        1
 10
240.0
 20
240.0
1001
TSA_
1071
        1
1071
       -1
1071
        9
1071
      125
1071
        0
1004

1040
0.0
1071
       34
  0
INSERT
  5
4AA
330
480
100
AcDbEntity
  8
A--L1---
100
AcDbBlockReference
  2
D2DUM$2
 10
240.0
 20
240.0
 30
0.0
  0
LWPOLYLINE
  5
4AB
330
480
100
AcDbEntity
  8
A--L1---
  6
Continuous
 62
     2
 48
400.0
100
AcDbPolyline
 90
        2
 70
     1
 43
0.0
 10
242.0
 20
239.9999996499497
 42
1.0
 10
238.0
 20
240.0000003500503
 42
1.0
1001
TSA_
1071
        1
1071
       -1
1071
        8
1071
      125
1071
        0
1004

1040
0.0
1071
        7
  0
LWPOLYLINE
  5
4AC
330
480
100
AcDbEntity
  8
A--L1---
  6
Continuous
 62
     5
 48
400.0
100
AcDbPolyline
 90
        3
 70
     0
 43
0.0
 10
206.5
 20
193.0
 10
206.5
 20
142.0
 10
-65.0
 20
142.0
1001
TSA_
1071
        1
1071
       -1
1071
        8
1071
      255
1071
        0
1004

1040
0.0
1071
        5
  0
LWPOLYLINE
  5
4AD
330
480
100
AcDbEntity
  8
A--L1---
  6
DASHDOT2
 62
     1
 48
400.0
100
AcDbPolyline
 90
        2
 70
     1
 43
0.0
 10
208.5
 20
192.9999996499497
 42
1.0
 10
204.5
 20
193.0000003500503
 42
1.0
1001
TSA_
1071
        1
1071
       -1
1071
        9
1071
      125
1071
        0
1004

1040
0.0
1071
       34
  0
HATCH
  5
4AE
330
480
100
AcDbEntity
  8
A--L1---
 62
     1
100
AcDbHatch
 10
0.0
 20
0.0
 30
0.0
210
0.0
220
0.0
230
1.0
  2
SOLID
 70
     1
 71
     1
 91
        1
 92
        1
 93
        2
 72
     2
 10
206.5
 20
193.0
 40
2.0
 50
359.9999899717978
 51
539.9999899717978
 73
     1
 72
     2
 10
206.5
 20
193.0
 40
2.0
 50
179.9999899717978
 51
359.9999899717978
 73
     1
 97
        0
 75
     0
 76
     1
 98
        1
 10
206.5
 20
193.0
1001
TSA_
1071
        1
1071
       -1
1071
        9
1071
      125
1071
        0
1004

1040
0.0
1071
       34
  0
INSERT
  5
4AF
330
480
100
AcDbEntity
  8
A--L1---
100
AcDbBlockReference
  2
D2DUM$2
 10
206.5
 20
193.0
 30
0.0
  0
LWPOLYLINE
  5
4B0
330
480
100
AcDbEntity
  8
A--L1---
  6
Continuous
 62
     2
 48
400.0
100
AcDbPolyline
 90
        2
 70
     1
 43
0.0
 10
208.5
 20
192.9999996499497
 42
1.0
 10
204.5
 20
193.0000003500503
 42
1.0
1001
TSA_
1071
        1
1071
       -1
1071
        8
1071
      125
1071
        0
1004

1040
0.0
1071
        7
  0
LWPOLYLINE
  5
4B1
330
480
100
AcDbEntity
  8
A--L1---
  6
DASHED2
 62
     1
 48
400.0
100
AcDbPolyline
 90
        4
 70
     1
 43
0.0
 10
0.0
 20
245.0
 10
0.0
 20
365.0
 10
453.0
 20
365.0
 10
453.0
 20
245.0
1001
TSA_
1071
        1
1071
       -1
1071
        9
1071
      121
1071
        0
1004

1040
0.0
1071
       13
  0
HATCH
  5
4B2
330
480
100
AcDbEntity
  8
A--L1---
 62
     5
100
AcDbHatch
 10
0.0
 20
0.0
 30
0.0
210
0.0
220
0.0
230
1.0
  2
ANSI31
 70
     0
 71
     1
 91
        1
 92
        1
 93
        4
 72
     1
 10
0.0
 20
245.0
 11
0.0
 21
365.0
 72
     1
 10
0.0
 20
365.0
 11
453.0
 21
365.0
 72
     1
 10
453.0
 20
365.0
 11
453.0
 21
245.0
 72
     1
 10
453.0
 20
245.0
 11
0.0
 21
245.0
 97
        0
 75
     0
 76
     1
 52
0.0
 41
4.0
 77
     0
 78
     1
 53
45.0
 43
0.0
 44
0.0
 45
-8.980256121069152
 46
8.980256121069154
 79
     0
 98
        1
 10
0.0
 20
245.0
1001
TSA_
1071
        1
1071
       -1
1071
        9
1071
      121
1071
        0
1004

1040
0.0
1071
       13
  0
LWPOLYLINE
  5
4B3
330
480
100
AcDbEntity
  8
A--L1---
  6
DASHED2
 62
     1
 48
400.0
100
AcDbPolyline
 90
        4
 70
     1
 43
0.0
 10
0.0
 20
245.0
 10
0.0
 20
365.0
 10
453.0
 20
365.0
 10
453.0
 20
245.0
1001
TSA_
1071
        1
1071
       -1
1071
        9
1071
      121
1071
        0
1004

1040
0.0
1071
       20
  0
HATCH
  5
4B4
330
480
100
AcDbEntity
  8
A--L1---
 62
     5
100
AcDbHatch
 10
0.0
 20
0.0
 30
0.0
210
0.0
220
0.0
230
1.0
  2
ANSI31
 70
     0
 71
     1
 91
        1
 92
        1
 93
        4
 72
     1
 10
0.0
 20
245.0
 11
0.0
 21
365.0
 72
     1
 10
0.0
 20
365.0
 11
453.0
 21
365.0
 72
     1
 10
453.0
 20
365.0
 11
453.0
 21
245.0
 72
     1
 10
453.0
 20
245.0
 11
0.0
 21
245.0
 97
        0
 75
     0
 76
     1
 52
90.00001494311726
 41
4.0
 77
     0
 78
     1
 53
135.0000149431173
 43
0.0
 44
0.0
 45
-8.980253778958811
 46
-8.980258463178883
 79
     0
 98
        1
 10
0.0
 20
245.0
1001
TSA_
1071
        1
1071
       -1
1071
        9
1071
      121
1071
        0
1004

1040
0.0
1071
       20
  0
INSERT
  5
4B5
330
480
100
AcDbEntity
  8
A--L1---
100
AcDbBlockReference
  2
D2DUM$2
 10
0.0
 20
245.0
 30
0.0
  0
LWPOLYLINE
  5
4B6
330
480
100
AcDbEntity
  8
A--L1---
  6
Continuous
 62
     1
 48
400.0
100
AcDbPolyline
 90
        2
 70
     0
 43
0.0
 10
0.0
 20
245.0
 10
453.0
 20
245.0
1001
TSA_
1071
        1
1071
       -1
1071
        8
1071
      121
1071
        0
1004

1040
0.0
1071
       10
  0
LWPOLYLINE
  5
4B7
330
480
100
AcDbEntity
  8
A--L1---
  6
Continuous
 62
     1
 48
400.0
100
AcDbPolyline
 90
        2
 70
     0
 43
0.0
 10
0.0
 20
365.0
 10
453.0
 20
365.0
1001
TSA_
1071
        1
1071
       -1
1071
        8
1071
      121
1071
        0
1004

1040
0.0
1071
       10
  0
LWPOLYLINE
  5
4B8
330
480
100
AcDbEntity
  8
A--L1---
  6
DASHDOT2
 62
     2
 48
400.0
100
AcDbPolyline
 90
        2
 70
     0
 43
0.0
 10
0.0
 20
420.0
 10
0.0
 20
168.0
1001
TSA_
1071
        1
1071
       -1
1071
        8
1071
      255
1071
        0
1004

1040
0.0
1071
       32
  0
LWPOLYLINE
  5
4B9
330
480
100
AcDbEntity
  8
A--L1---
  6
DASHDOT2
 62
     2
 48
400.0
100
AcDbPolyline
 90
        2
 70
     0
 43
0.0
 10
453.0
 20
420.0
 10
453.0
 20
168.0
1001
TSA_
1071
        1
1071
       -1
1071
        8
1071
      255
1071
        0
1004

1040
0.0
1071
       32
  0
LWPOLYLINE
  5
4BA
330
480
100
AcDbEntity
  8
A--L1---
  6
DASHDOT2
 62
     2
 48
400.0
100
AcDbPolyline
 90
        2
 70
     0
 43
0.0
 10
-25.0
 20
395.0
 10
478.0
 20
395.0
1001
TSA_
1071
        1
1071
       -1
1071
        8
1071
      255
1071
        0
1004

1040
0.0
1071
       32
  0
LWPOLYLINE
  5
4BB
330
480
100
AcDbEntity
  8
A--L1---
  6
DASHED2
 62
     1
 48
400.0
100
AcDbPolyline
 90
        4
 70
     1
 43
0.0
 10
453.0
 20
395.0
 10
453.0
 20
365.0
 10
0.0
 20
365.0
 10
0.0
 20
395.0
1001
TSA_
1071
        1
1071
       -1
1071
        9
1071
      125
1071
        0
1004

1040
0.0
1071
       16
  0
HATCH
  5
4BC
330
480
100
AcDbEntity
  8
A--L1---
 62
   253
100
AcDbHatch
 10
0.0
 20
0.0
 30
0.0
210
0.0
220
0.0
230
1.0
  2
SOLID
 70
     1
 71
     1
 91
        1
 92
        1
 93
        4
 72
     1
 10
453.0
 20
395.0
 11
453.0
 21
365.0
 72
     1
 10
453.0
 20
365.0
 11
0.0
 21
365.0
 72
     1
 10
0.0
 20
365.0
 11
0.0
 21
395.0
 72
     1
 10
0.0
 20
395.0
 11
453.0
 21
395.0
 97
        0
 75
     0
 76
     1
 98
        1
 10
453.0
 20
395.0
1001
TSA_
1071
        1
1071
       -1
1071
        9
1071
      125
1071
        0
1004

1040
0.0
1071
       16
  0
INSERT
  5
4BD
330
480
100
AcDbEntity
  8
A--L1---
100
AcDbBlockReference
  2
D2DUM$2
 10
453.0
 20
395.0
 30
0.0
  0
LWPOLYLINE
  5
4BE
330
480
100
AcDbEntity
  8
A--L1---
  6
DASHED2
 62
     1
 48
400.0
100
AcDbPolyline
 90
        4
 70
     1
 43
0.0
 10
453.0
 20
395.0
 10
453.0
 20
365.0
 10
0.0
 20
365.0
 10
0.0
 20
395.0
1001
TSA_
1071
        1
1071
       -1
1071
        9
1071
      127
1071
        0
1004

1040
0.0
1071
       11
  0
HATCH
  5
4BF
330
480
100
AcDbEntity
  8
A--L1---
 62
     3
100
AcDbHatch
 10
0.0
 20
0.0
 30
0.0
210
0.0
220
0.0
230
1.0
  2
SOLID
 70
     1
 71
     1
 91
        1
 92
        1
 93
        4
 72
     1
 10
453.0
 20
395.0
 11
453.0
 21
365.0
 72
     1
 10
453.0
 20
365.0
 11
0.0
 21
365.0
 72
     1
 10
0.0
 20
365.0
 11
0.0
 21
395.0
 72
     1
 10
0.0
 20
395.0
 11
453.0
 21
395.0
 97
        0
 75
     0
 76
     1
 98
        1
 10
453.0
 20
395.0
1001
TSA_
1071
        1
1071
       -1
1071
        9
1071
      127
1071
        0
1004

1040
0.0
1071
       11
  0
LWPOLYLINE
  5
4C0
330
480
100
AcDbEntity
  8
A--L1---
  6
Continuous
 62
     2
 48
400.0
100
AcDbPolyline
 90
        2
 70
     0
 43
0.0
 10
453.0
 20
365.0
 10
0.0
 20
365.0
1001
TSA_
1071
        1
1071
       -1
1071
        8
1071
      125
1071
        0
1004

1040
0.0
1071
        9
  0
LWPOLYLINE
  5
4C1
330
480
100
AcDbEntity
  8
A--L1---
  6
Continuous
 62
     1
 48
400.0
100
AcDbPolyline
 90
        4
 70
     1
 43
0.0
 10
204.0
 20
40.0
 10
204.0
 20
74.0
 10
249.0
 20
74.0
 10
249.0
 20
40.0
1001
TSA_
1071
        1
1071
       -1
1071
        9
1071
      121
1071
        0
1004

1040
0.0
1071
       49
  0
HATCH
  5
4C2
330
480
100
AcDbEntity
  8
A--L1---
 62
     5
100
AcDbHatch
 10
0.0
 20
0.0
 30
0.0
210
0.0
220
0.0
230
1.0
  2
ANSI31
 70
     0
 71
     1
 91
        1
 92
        1
 93
        4
 72
     1
 10
204.0
 20
40.0
 11
204.0
 21
74.0
 72
     1
 10
204.0
 20
74.0
 11
249.0
 21
74.0
 72
     1
 10
249.0
 20
74.0
 11
249.0
 21
40.0
 72
     1
 10
249.0
 20
40.0
 11
204.0
 21
40.0
 97
        0
 75
     0
 76
     1
 52
90.00001494311726
 41
3.0
 77
     0
 78
     1
 53
135.0000149431173
 43
0.0
 44
0.0
 45
-6.735190334219109
 46
-6.735193847384162
 79
     0
 98
        1
 10
204.0
 20
40.0
1001
TSA_
1071
        1
1071
       -1
1071
        9
1071
      121
1071
        0
1004

1040
0.0
1071
       49
  0
INSERT
  5
4C3
330
480
100
AcDbEntity
  8
A--L1---
100
AcDbBlockReference
  2
D2DUM$2
 10
204.0
 20
40.0
 30
0.0
  0
LWPOLYLINE
  5
4C4
330
480
100
AcDbEntity
  8
A--L1---
  6
Continuous
 62
     2
 48
400.0
100
AcDbPolyline
 90
        4
 70
     1
 43
0.0
 10
204.0
 20
40.0
 10
204.0
 20
74.0
 10
249.0
 20
74.0
 10
249.0
 20
40.0
1001
TSA_
1071
        1
1071
       -1
1071
        8
1071
       97
1071
        0
1004

1040
0.0
1071
        2
  0
LWPOLYLINE
  5
4C5
330
480
100
AcDbEntity
  8
A--L1---
  6
DASHED2
 62
     2
 48
400.0
100
AcDbPolyline
 90
        2
 70
     0
 43
0.0
 10
0.0
 20
75.0
 10
453.0
 20
75.0
1001
TSA_
1071
        1
1071
       -1
1071
        8
1071
      113
1071
        0
1004

1040
0.0
1071
       17
  0
LWPOLYLINE
  5
4C6
330
480
100
AcDbEntity
  8
A--L1---
  6
Continuous
 62
     5
 48
400.0
100
AcDbPolyline
 90
        3
 70
     0
 43
0.0
 10
240.0
 20
75.0
 10
240.0
 20
-78.0
 10
430.0
 20
-78.0
1001
TSA_
1071
        1
1071
       -1
1071
        8
1071
      255
1071
        0
1004

1040
0.0
1071
        5
  0
LWPOLYLINE
  5
4C7
330
480
100
AcDbEntity
  8
A--L1---
  6
DASHDOT2
 62
     1
 48
400.0
100
AcDbPolyline
 90
        2
 70
     1
 43
0.0
 10
242.0
 20
74.99999964994971
 42
1.0
 10
238.0
 20
75.00000035005029
 42
1.0
1001
TSA_
1071
        1
1071
       -1
1071
        9
1071
      125
1071
        0
1004

1040
0.0
1071
       34
  0
HATCH
  5
4C8
330
480
100
AcDbEntity
  8
A--L1---
 62
     1
100
AcDbHatch
 10
0.0
 20
0.0
 30
0.0
210
0.0
220
0.0
230
1.0
  2
SOLID
 70
     1
 71
     1
 91
        1
 92
        1
 93
        2
 72
     2
 10
240.0
 20
75.0
 40
2.0
 50
359.9999899717978
 51
539.9999899717978
 73
     1
 72
     2
 10
240.0
 20
75.0
 40
2.0
 50
179.9999899717978
 51
359.9999899717978
 73
     1
 97
        0
 75
     0
 76
     1
 98
        1
 10
240.0
 20
75.0
1001
TSA_
1071
        1
1071
       -1
1071
        9
1071
      125
1071
        0
1004

1040
0.0
1071
       34
  0
INSERT
  5
4C9
330
480
100
AcDbEntity
  8
A--L1---
100
AcDbBlockReference
  2
D2DUM$2
 10
240.0
 20
75.0
 30
0.0
  0
LWPOLYLINE
  5
4CA
330
480
100
AcDbEntity
  8
A--L1---
  6
Continuous
 62
     2
 48
400.0
100
AcDbPolyline
 90
        2
 70
     1
 43
0.0
 10
242.0
 20
74.99999964994971
 42
1.0
 10
238.0
 20
75.00000035005029
 42
1.0
1001
TSA_
1071
        1
1071
       -1
1071
        8
1071
      125
1071
        0
1004

1040
0.0
1071
        7
  0
LWPOLYLINE
  5
4CB
330
480
100
AcDbEntity
  8
A--L1---
  6
Continuous
 62
     5
 48
400.0
100
AcDbPolyline
 90
        3
 70
     0
 43
0.0
 10
226.5
 20
28.0
 10
226.5
 20
-23.0
 10
-65.0
 20
-23.0
1001
TSA_
1071
        1
1071
       -1
1071
        8
1071
      255
1071
        0
1004

1040
0.0
1071
        5
  0
LWPOLYLINE
  5
4CC
330
480
100
AcDbEntity
  8
A--L1---
  6
DASHDOT2
 62
     1
 48
400.0
100
AcDbPolyline
 90
        2
 70
     1
 43
0.0
 10
228.5
 20
27.99999964994971
 42
1.0
 10
224.5
 20
28.00000035005029
 42
1.0
1001
TSA_
1071
        1
1071
       -1
1071
        9
1071
      125
1071
        0
1004

1040
0.0
1071
       34
  0
HATCH
  5
4CD
330
480
100
AcDbEntity
  8
A--L1---
 62
     1
100
AcDbHatch
 10
0.0
 20
0.0
 30
0.0
210
0.0
220
0.0
230
1.0
  2
SOLID
 70
     1
 71
     1
 91
        1
 92
        1
 93
        2
 72
     2
 10
226.5
 20
28.0
 40
2.0
 50
359.9999899717978
 51
539.9999899717978
 73
     1
 72
     2
 10
226.5
 20
28.0
 40
2.0
 50
179.9999899717978
 51
359.9999899717978
 73
     1
 97
        0
 75
     0
 76
     1
 98
        1
 10
226.5
 20
28.0
1001
TSA_
1071
        1
1071
       -1
1071
        9
1071
      125
1071
        0
1004

1040
0.0
1071
       34
  0
INSERT
  5
4CE
330
480
100
AcDbEntity
  8
A--L1---
100
AcDbBlockReference
  2
D2DUM$2
 10
226.5
 20
28.0
 30
0.0
  0
LWPOLYLINE
  5
4CF
330
480
100
AcDbEntity
  8
A--L1---
  6
Continuous
 62
     2
 48
400.0
100
AcDbPolyline
 90
        2
 70
     1
 43
0.0
 10
228.5
 20
27.99999964994971
 42
1.0
 10
224.5
 20
28.00000035005029
 42
1.0
1001
TSA_
1071
        1
1071
       -1
1071
        8
1071
      125
1071
        0
1004

1040
0.0
1071
        7
  0
LWPOLYLINE
  5
4D0
330
480
100
AcDbEntity
  8
A--L1---
  6
DASHDOT2
 62
     2
 48
400.0
100
AcDbPolyline
 90
        2
 70
     0
 43
0.0
 10
0.0
 20
100.0
 10
0.0
 20
3.0
1001
TSA_
1071
        1
1071
       -1
1071
        8
1071
      255
1071
        0
1004

1040
0.0
1071
       32
  0
LWPOLYLINE
  5
4D1
330
480
100
AcDbEntity
  8
A--L1---
  6
DASHDOT2
 62
     2
 48
400.0
100
AcDbPolyline
 90
        2
 70
     0
 43
0.0
 10
453.0
 20
100.0
 10
453.0
 20
3.0
1001
TSA_
1071
        1
1071
       -1
1071
        8
1071
      255
1071
        0
1004

1040
0.0
1071
       32
  0
LWPOLYLINE
  5
4D2
330
480
100
AcDbEntity
  8
A--L1---
  6
DOT2
 62
     1
 48
400.0
100
AcDbPolyline
 90
        4
 70
     1
 43
0.0
 10
0.0
 20
193.0
 10
221.5
 20
193.0
 10
221.5
 20
199.0
 10
0.0
 20
199.0
1001
TSA_
1071
        1
1071
       -1
1071
        9
1071
      113
1071
        0
1004

1040
0.0
1071
       29
  0
HATCH
  5
4D3
330
480
100
AcDbEntity
  8
A--L1---
 62
     5
100
AcDbHatch
 10
0.0
 20
0.0
 30
0.0
210
0.0
220
0.0
230
1.0
  2
ANSI31
 70
     0
 71
     1
 91
        1
 92
        1
 93
        4
 72
     1
 10
0.0
 20
193.0
 11
221.5
 21
193.0
 72
     1
 10
221.5
 20
193.0
 11
221.5
 21
199.0
 72
     1
 10
221.5
 20
199.0
 11
0.0
 21
199.0
 72
     1
 10
0.0
 20
199.0
 11
0.0
 21
193.0
 97
        0
 75
     0
 76
     1
 52
45.00000747155863
 41
3.2
 77
     0
 78
     1
 53
90.00000747155863
 43
0.0
 44
0.0
 45
-10.15999999999991
 46
-0.0000013248975099
 79
     0
 98
        1
 10
0.0
 20
193.0
1001
TSA_
1071
        1
1071
       -1
1071
        9
1071
      113
1071
        0
1004

1040
0.0
1071
       29
  0
INSERT
  5
4D4
330
480
100
AcDbEntity
  8
A--L1---
100
AcDbBlockReference
  2
D2DUM$2
 10
0.0
 20
193.0
 30
0.0
  0
LWPOLYLINE
  5
4D5
330
480
100
AcDbEntity
  8
A--L1---
  6
Continuous
 62
     1
 48
400.0
100
AcDbPolyline
 90
        4
 70
     0
 43
0.0
 10
0.0
 20
193.0
 10
221.5
 20
193.0
 10
221.5
 20
199.0
 10
0.0
 20
199.0
1001
TSA_
1071
        1
1071
       -1
1071
        8
1071
      125
1071
        0
1004

1040
0.0
1071
       10
  0
LWPOLYLINE
  5
4D6
330
480
100
AcDbEntity
  8
A--L1---
  6
DOT2
 62
     1
 48
400.0
100
AcDbPolyline
 90
        4
 70
     1
 43
0.0
 10
186.5
 20
199.0
 10
186.5
 20
205.0
 10
266.5
 20
205.0
 10
266.5
 20
199.0
1001
TSA_
1071
        1
1071
       -1
1071
        9
1071
      113
1071
        0
1004

1040
0.0
1071
       29
  0
HATCH
  5
4D7
330
480
100
AcDbEntity
  8
A--L1---
 62
     5
100
AcDbHatch
 10
0.0
 20
0.0
 30
0.0
210
0.0
220
0.0
230
1.0
  2
ANSI31
 70
     0
 71
     1
 91
        1
 92
        1
 93
        4
 72
     1
 10
186.5
 20
199.0
 11
186.5
 21
205.0
 72
     1
 10
186.5
 20
205.0
 11
266.5
 21
205.0
 72
     1
 10
266.5
 20
205.0
 11
266.5
 21
199.0
 72
     1
 10
266.5
 20
199.0
 11
186.5
 21
199.0
 97
        0
 75
     0
 76
     1
 52
45.00000747155863
 41
3.2
 77
     0
 78
     1
 53
90.00000747155863
 43
0.0
 44
0.0
 45
-10.15999999999991
 46
-0.0000013248975099
 79
     0
 98
        1
 10
186.5
 20
199.0
1001
TSA_
1071
        1
1071
       -1
1071
        9
1071
      113
1071
        0
1004

1040
0.0
1071
       29
  0
INSERT
  5
4D8
330
480
100
AcDbEntity
  8
A--L1---
100
AcDbBlockReference
  2
D2DUM$2
 10
186.5
 20
199.0
 30
0.0
  0
LWPOLYLINE
  5
4D9
330
480
100
AcDbEntity
  8
A--L1---
  6
Continuous
 62
     1
 48
400.0
100
AcDbPolyline
 90
        4
 70
     1
 43
0.0
 10
186.5
 20
199.0
 10
186.5
 20
205.0
 10
266.5
 20
205.0
 10
266.5
 20
199.0
1001
TSA_
1071
        1
1071
       -1
1071
        8
1071
      125
1071
        0
1004

1040
0.0
1071
       10
  0
LWPOLYLINE
  5
4DA
330
480
100
AcDbEntity
  8
A--L1---
  6
DOT2
 62
     1
 48
400.0
100
AcDbPolyline
 90
        4
 70
     1
 43
0.0
 10
0.0
 20
28.0
 10
453.0
 20
28.0
 10
453.0
 20
34.0
 10
0.0
 20
34.0
1001
TSA_
1071
        1
1071
       -1
1071
        9
1071
      113
1071
        0
1004

1040
0.0
1071
       29
  0
HATCH
  5
4DB
330
480
100
AcDbEntity
  8
A--L1---
 62
     5
100
AcDbHatch
 10
0.0
 20
0.0
 30
0.0
210
0.0
220
0.0
230
1.0
  2
ANSI31
 70
     0
 71
     1
 91
        1
 92
        1
 93
        4
 72
     1
 10
0.0
 20
28.0
 11
453.0
 21
28.0
 72
     1
 10
453.0
 20
28.0
 11
453.0
 21
34.0
 72
     1
 10
453.0
 20
34.0
 11
0.0
 21
34.0
 72
     1
 10
0.0
 20
34.0
 11
0.0
 21
28.0
 97
        0
 75
     0
 76
     1
 52
45.00000747155863
 41
3.2
 77
     0
 78
     1
 53
90.00000747155863
 43
0.0
 44
0.0
 45
-10.15999999999991
 46
-0.0000013248975099
 79
     0
 98
        1
 10
0.0
 20
28.0
1001
TSA_
1071
        1
1071
       -1
1071
        9
1071
      113
1071
        0
1004

1040
0.0
1071
       29
  0
INSERT
  5
4DC
330
480
100
AcDbEntity
  8
A--L1---
100
AcDbBlockReference
  2
D2DUM$2
 10
0.0
 20
28.0
 30
0.0
  0
LWPOLYLINE
  5
4DD
330
480
100
AcDbEntity
  8
A--L1---
  6
Continuous
 62
     1
 48
400.0
100
AcDbPolyline
 90
        4
 70
     0
 43
0.0
 10
0.0
 20
28.0
 10
453.0
 20
28.0
 10
453.0
 20
34.0
 10
0.0
 20
34.0
1001
TSA_
1071
        1
1071
       -1
1071
        8
1071
      125
1071
        0
1004

1040
0.0
1071
       10
  0
LWPOLYLINE
  5
4DE
330
480
100
AcDbEntity
  8
A--L1---
  6
DOT2
 62
     1
 48
400.0
100
AcDbPolyline
 90
        4
 70
     1
 43
0.0
 10
186.5
 20
34.0
 10
186.5
 20
40.0
 10
266.5
 20
40.0
 10
266.5
 20
34.0
1001
TSA_
1071
        1
1071
       -1
1071
        9
1071
      113
1071
        0
1004

1040
0.0
1071
       29
  0
HATCH
  5
4DF
330
480
100
AcDbEntity
  8
A--L1---
 62
     5
100
AcDbHatch
 10
0.0
 20
0.0
 30
0.0
210
0.0
220
0.0
230
1.0
  2
ANSI31
 70
     0
 71
     1
 91
        1
 92
        1
 93
        4
 72
     1
 10
186.5
 20
34.0
 11
186.5
 21
40.0
 72
     1
 10
186.5
 20
40.0
 11
266.5
 21
40.0
 72
     1
 10
266.5
 20
40.0
 11
266.5
 21
34.0
 72
     1
 10
266.5
 20
34.0
 11
186.5
 21
34.0
 97
        0
 75
     0
 76
     1
 52
45.00000747155863
 41
3.2
 77
     0
 78
     1
 53
90.00000747155863
 43
0.0
 44
0.0
 45
-10.15999999999991
 46
-0.0000013248975099
 79
     0
 98
        1
 10
186.5
 20
34.0
1001
TSA_
1071
        1
1071
       -1
1071
        9
1071
      113
1071
        0
1004

1040
0.0
1071
       29
  0
INSERT
  5
4E0
330
480
100
AcDbEntity
  8
A--L1---
100
AcDbBlockReference
  2
D2DUM$2
 10
186.5
 20
34.0
 30
0.0
  0
LWPOLYLINE
  5
4E1
330
480
100
AcDbEntity
  8
A--L1---
  6
Continuous
 62
     1
 48
400.0
100
AcDbPolyline
 90
        4
 70
     1
 43
0.0
 10
186.5
 20
34.0
 10
186.5
 20
40.0
 10
266.5
 20
40.0
 10
266.5
 20
34.0
1001
TSA_
1071
        1
1071
       -1
1071
        8
1071
      125
1071
        0
1004

1040
0.0
1071
       10
  0
LWPOLYLINE
  5
4E2
330
480
100
AcDbEntity
  8
A--L1---
  6
DOT2
 62
     1
 48
400.0
100
AcDbPolyline
 90
        4
 70
     1
 43
0.0
 10
453.0
 20
199.0
 10
231.5
 20
199.0
 10
231.5
 20
193.0
 10
453.0
 20
193.0
1001
TSA_
1071
        1
1071
       -1
1071
        9
1071
      113
1071
        0
1004

1040
0.0
1071
       29
  0
HATCH
  5
4E3
330
480
100
AcDbEntity
  8
A--L1---
 62
     5
100
AcDbHatch
 10
0.0
 20
0.0
 30
0.0
210
0.0
220
0.0
230
1.0
  2
ANSI31
 70
     0
 71
     1
 91
        1
 92
        1
 93
        4
 72
     1
 10
453.0
 20
199.0
 11
231.5
 21
199.0
 72
     1
 10
231.5
 20
199.0
 11
231.5
 21
193.0
 72
     1
 10
231.5
 20
193.0
 11
453.0
 21
193.0
 72
     1
 10
453.0
 20
193.0
 11
453.0
 21
199.0
 97
        0
 75
     0
 76
     1
 52
45.00000747155863
 41
3.2
 77
     0
 78
     1
 53
90.00000747155863
 43
0.0
 44
0.0
 45
-10.15999999999991
 46
-0.0000013248975099
 79
     0
 98
        1
 10
453.0
 20
199.0
1001
TSA_
1071
        1
1071
       -1
1071
        9
1071
      113
1071
        0
1004

1040
0.0
1071
       29
  0
INSERT
  5
4E4
330
480
100
AcDbEntity
  8
A--L1---
100
AcDbBlockReference
  2
D2DUM$2
 10
453.0
 20
199.0
 30
0.0
  0
LWPOLYLINE
  5
4E5
330
480
100
AcDbEntity
  8
A--L1---
  6
Continuous
 62
     1
 48
400.0
100
AcDbPolyline
 90
        4
 70
     0
 43
0.0
 10
453.0
 20
199.0
 10
231.5
 20
199.0
 10
231.5
 20
193.0
 10
453.0
 20
193.0
1001
TSA_
1071
        1
1071
       -1
1071
        8
1071
      125
1071
        0
1004

1040
0.0
1071
       10
  0
ENDBLK
  5
4E7
330
480
100
AcDbEntity
  8
0
100
AcDbBlockEnd
  0
BLOCK
  5
483
330
481
100
AcDbEntity
  8
0
100
AcDbBlockBegin
  2
DSCHROEF$2
 70
     0
 10
0.0
 20
0.0
 30
0.0
  3
DSCHROEF$2
  1

  0
LWPOLYLINE
  5
482
330
481
100
AcDbEntity
  8
A--L1---
  6
Continuous
 62
     5
 48
400.0
100
AcDbPolyline
 90
       12
 70
     0
 43
0.0
 10
4.0
 20
2.0
 10
8.0
 20
-2.0
 10
12.0
 20
2.0
 10
16.0
 20
-2.0
 10
20.0
 20
2.0
 10
24.0
 20
-2.0
 10
28.0
 20
2.0
 10
30.0
 20
0.0
 10
0.0
 20
0.0
 10
-2.0
 20
2.5
 10
-2.0
 20
-2.5
 10
0.0
 20
0.0
1001
TSA_
1071
        1
1071
       -1
1071
        8
1071
      255
1071
        0
1004

1040
0.0
1071
        5
  0
ENDBLK
  5
484
330
481
100
AcDbEntity
  8
0
100
AcDbBlockEnd
  0
BLOCK
  5
494
330
48C
100
AcDbEntity
  8
0
100
AcDbBlockBegin
  2
DBOLBENAM$2
 70
     0
 10
0.0
 20
0.0
 30
0.0
  3
DBOLBENAM$2
  1

  0
LWPOLYLINE
  5
48D
330
48C
100
AcDbEntity
  8
A--L1---
  6
DASHDOT2
 62
     1
 48
400.0
100
AcDbPolyline
 90
        2
 70
     1
 43
0.0
 10
1.999999999999969
 20
-0.0000003500502928
 42
1.0
 10
-1.999999999999969
 20
0.0000003500502928
 42
1.0
1001
TSA_
1071
        1
1071
       -1
1071
        9
1071
      125
1071
        0
1004

1040
0.0
1071
       34
  0
HATCH
  5
48E
330
48C
100
AcDbEntity
  8
A--L1---
 62
     1
100
AcDbHatch
 10
0.0
 20
0.0
 30
0.0
210
0.0
220
0.0
230
1.0
  2
SOLID
 70
     1
 71
     1
 91
        1
 92
        1
 93
        2
 72
     2
 10
0.0
 20
0.0
 40
2.0
 50
359.9999899717978
 51
539.9999899717978
 73
     1
 72
     2
 10
0.0
 20
0.0
 40
2.0
 50
179.9999899717978
 51
359.9999899717978
 73
     1
 97
        0
 75
     0
 76
     1
 98
        1
 10
1.999999999999969
 20
-0.0000003500502928
1001
TSA_
1071
        1
1071
       -1
1071
        9
1071
      125
1071
        0
1004

1040
0.0
1071
       34
  0
INSERT
  5
492
330
48C
100
AcDbEntity
  8
A--L1---
100
AcDbBlockReference
  2
D2DUM$2
 10
1.999999999999969
 20
-0.0000003500502928
 30
0.0
  0
LWPOLYLINE
  5
493
330
48C
100
AcDbEntity
  8
A--L1---
  6
Continuous
 62
     2
 48
400.0
100
AcDbPolyline
 90
        2
 70
     1
 43
0.0
 10
1.999999999999969
 20
-0.0000003500502928
 42
1.0
 10
-1.999999999999969
 20
0.0000003500502928
 42
1.0
1001
TSA_
1071
        1
1071
       -1
1071
        8
1071
      125
1071
        0
1004

1040
0.0
1071
        7
  0
ENDBLK
  5
495
330
48C
100
AcDbEntity
  8
0
100
AcDbBlockEnd
  0
BLOCK
  5
490
330
48F
100
AcDbEntity
  8
0
100
AcDbBlockBegin
  2
D2DUM$2
 70
     0
 10
0.0
 20
0.0
 30
0.0
  3
D2DUM$2
  1

  0
ENDBLK
  5
491
330
48F
100
AcDbEntity
  8
0
100
AcDbBlockEnd
  0
BLOCK
  5
1C
330
1B
100
AcDbEntity
  8
0
100
AcDbBlockBegin
  2
*Paper_Space92
 70
     0
 10
0.0
 20
0.0
 30
0.0
  3
*Paper_Space92
  1

  0
VIEWPORT
  5
5B7
330
1B
100
AcDbEntity
  8
0
100
AcDbViewport
 10
0.0
 20
0.0
 30
0.0
 40
643.681975308642
 41
355.488
 68
     1
 69
     1
 12
166.1090699588477
 22
104.906
 13
0.0
 23
0.0
 14
10.0
 24
10.0
 15
10.0
 25
10.0
 16
0.0
 26
0.0
 36
1.0
 17
0.0
 27
0.0
 37
0.0
 42
50.0
 43
0.0
 44
0.0
 45
355.488
 50
0.0
 51
0.0
 72
   100
 90
   557168
  1

281
     0
 71
     1
 74
     0
110
0.0
120
0.0
130
0.0
111
1.0
121
0.0
131
0.0
112
0.0
122
1.0
132
0.0
 79
     0
146
0.0
170
     0
 61
     5
348
4FC
292
     0
282
     1
141
0.0
142
0.0
 63
   256
361
5B8
  0
VIEWPORT
  5
5B9
330
1B
100
AcDbEntity
  8
0
100
AcDbViewport
 10
128.5
 20
97.5
 30
0.0
 40
205.6
 41
156.0
 68
     2
 69
     2
 12
1608.740879159758
 22
742.5
 13
0.0
 23
0.0
 14
10.0
 24
10.0
 15
10.0
 25
10.0
 16
0.0
 26
0.0
 36
1.0
 17
0.0
 27
0.0
 37
0.0
 42
50.0
 43
0.0
 44
0.0
 45
1514.7
 50
0.0
 51
0.0
 72
   100
 90
   819312
  1

281
     0
 71
     1
 74
     0
110
0.0
120
0.0
130
0.0
111
1.0
121
0.0
131
0.0
112
0.0
122
1.0
132
0.0
 79
     0
146
0.0
170
     0
 61
     5
348
4FC
292
     0
282
     1
141
0.0
142
0.0
 63
   256
361
5BA
  0
ENDBLK
  5
1D
330
1B
100
AcDbEntity
  8
0
100
AcDbBlockEnd
  0
ENDSEC
  0
SECTION
  2
ENTITIES
  0
INSERT
  5
542
330
1F
100
AcDbEntity
  8
A--L1---
100
AcDbBlockReference
  2
DSCHROEF$2
 10
1601.027451011609
 20
900.1027674074076
 30
0.0
 50
89.99999999742762
1001
TSA_
1071
        1
1071
       -1
1071
        2
1071
      255
1071
        0
1004

1040
0.0
  0
INSERT
  5
543
330
1F
100
AcDbEntity
  8
A--L1---
100
AcDbBlockReference
  2
DSCHROEF$2
 10
1641.027451011609
 20
900.1027674074076
 30
0.0
 42
-1.0
 50
89.99999999742762
1001
TSA_
1071
        1
1071
       -1
1071
        2
1071
      255
1071
        0
1004

1040
0.0
  0
INSERT
  5
549
330
1F
100
AcDbEntity
  8
A--L1---
100
AcDbBlockReference
  2
DBOLBENAM$2
 10
1634.527451011609
 20
929.1027674074076
 30
0.0
1001
TSA_
1071
        1
1071
       -1
1071
        2
1071
      255
1071
        0
1004

1040
0.0
  0
INSERT
  5
54A
330
1F
100
AcDbEntity
  8
A--L1---
100
AcDbBlockReference
  2
DBOLBENAM$2
 10
1634.527450661559
 20
909.3413144897604
 30
0.0
1001
TSA_
1071
        1
1071
       -1
1071
        2
1071
      255
1071
        0
1004

1040
0.0
  0
INSERT
  5
54B
330
1F
100
AcDbEntity
  8
A--L1---
100
AcDbBlockReference
  2
DBOLBENAM$2
 10
1634.527451011609
 20
903.0616340257577
 30
0.0
1001
TSA_
1071
        1
1071
       -1
1071
        2
1071
      255
1071
        0
1004

1040
0.0
  0
INSERT
  5
54C
330
1F
100
AcDbEntity
  8
A--L1---
100
AcDbBlockReference
  2
DSCHROEF$2
 10
1621.027451011609
 20
735.1027674074076
 30
0.0
 50
89.99999999742762
1001
TSA_
1071
        1
1071
       -1
1071
        2
1071
      255
1071
        0
1004

1040
0.0
  0
INSERT
  5
551
330
1F
100
AcDbEntity
  8
A--L1---
100
AcDbBlockReference
  2
DBOLBENAM$2
 10
1634.527451011609
 20
764.1027674074076
 30
0.0
1001
TSA_
1071
        1
1071
       -1
1071
        2
1071
      255
1071
        0
1004

1040
0.0
  0
INSERT
  5
552
330
1F
100
AcDbEntity
  8
A--L1---
100
AcDbBlockReference
  2
DBOLBENAM$2
 10
1634.527450661559
 20
744.1867696594383
 30
0.0
1001
TSA_
1071
        1
1071
       -1
1071
        2
1071
      255
1071
        0
1004

1040
0.0
  0
INSERT
  5
553
330
1F
100
AcDbEntity
  8
A--L1---
100
AcDbBlockReference
  2
DBOLBENAM$2
 10
1634.527451011609
 20
737.8148123750053
 30
0.0
1001
TSA_
1071
        1
1071
       -1
1071
        2
1071
      255
1071
        0
1004

1040
0.0
  0
LWPOLYLINE
  5
555
330
1F
100
AcDbEntity
  8
RP_wooden substructure
 48
400.0
100
AcDbPolyline
 90
        4
 70
     1
 43
0.0
 10
1586.027451011609
 20
912.1027674074076
 10
1586.027451011609
 20
946.1027674074076
 10
1656.027451011609
 20
946.1027674074076
 10
1656.027451011609
 20
912.1027674074076
1001
TSA_
1071
        1
1071
       -1
1071
        9
1071
      121
1071
        0
1004

1040
0.0
1071
       49
  0
HATCH
  5
556
102
{ACAD_XDICTIONARY
360
70D
102
}
330
1F
100
AcDbEntity
  8
RP_wooden substructure
100
AcDbHatch
 10
0.0
 20
0.0
 30
0.0
210
0.0
220
0.0
230
1.0
  2
ANSI31
 70
     0
 71
     0
 91
        1
 92
        1
 93
        4
 72
     1
 10
1586.027451011609
 20
912.1027674074076
 11
1586.027451011609
 21
946.1027674074076
 72
     1
 10
1586.027451011609
 20
946.1027674074076
 11
1656.027451011609
 21
946.1027674074076
 72
     1
 10
1656.027451011609
 20
946.1027674074076
 11
1656.027451011609
 21
912.1027674074076
 72
     1
 10
1656.027451011609
 20
912.1027674074076
 11
1586.027451011609
 21
912.1027674074076
 97
        0
 75
     0
 76
     1
 52
90.00001494311725
 41
5.0
 77
     0
 78
     1
 53
135.0000149431173
 43
0.0
 44
0.0
 45
-11.22531722369851
 46
-11.2253230789736
 79
     0
 98
        1
 10
1586.027451011609
 20
912.1027674074076
1001
TSA_
1071
        1
1071
       -1
1071
        9
1071
      121
1071
        0
1004

1040
0.0
1071
       49
1001
ACAD
1010
0.0
1020
0.0
1030
0.0
1001
AcadAnnotative
1000
AnnotativeData
1002
{
1070
     1
1070
     0
1002
}
  0
INSERT
  5
557
330
1F
100
AcDbEntity
  8
A--L1---
100
AcDbBlockReference
  2
D2DUM$2
 10
2752.994538419017
 20
812.5
 30
0.0
  0
LWPOLYLINE
  5
558
330
1F
100
AcDbEntity
  8
RP_wooden substructure
 48
400.0
100
AcDbPolyline
 90
        4
 70
     1
 43
0.0
 10
1586.027451011609
 20
912.1027674074076
 10
1586.027451011609
 20
946.1027674074076
 10
1656.027451011609
 20
946.1027674074076
 10
1656.027451011609
 20
912.1027674074076
1001
TSA_
1071
        1
1071
       -1
1071
        8
1071
       97
1071
        0
1004

1040
0.0
1071
        2
  0
LWPOLYLINE
  5
559
330
1F
100
AcDbEntity
  8
RP_breathable membrane
 48
0.25
100
AcDbPolyline
 90
        2
 70
     0
 43
0.0
 10
1394.527451011609
 20
947.1027674074076
 10
1847.527451011609
 20
947.1027674074076
1001
TSA_
1071
        1
1071
       -1
1071
        8
1071
      113
1071
        0
1004

1040
0.0
1071
       17
  0
LWPOLYLINE
  5
55A
330
1F
100
AcDbEntity
  8
RP_Beschriftung
 48
400.0
100
AcDbPolyline
 90
        3
 70
     0
 43
0.0
 10
1634.527451011609
 20
947.1027674074076
 10
1634.527451011609
 20
794.1027674074076
 10
1729.527451011609
 20
794.1027674074076
1001
TSA_
1071
        1
1071
       -1
1071
        8
1071
      255
1071
        0
1004

1040
0.0
1071
        5
  0
LWPOLYLINE
  5
55B
330
1F
100
AcDbEntity
  8
A--L1---
  6
DASHDOT2
 62
     1
 48
400.0
100
AcDbPolyline
 90
        2
 70
     1
 43
0.0
 10
1636.527451011609
 20
947.1027670573573
 42
1.0
 10
1632.527451011609
 20
947.1027677574579
 42
1.0
1001
TSA_
1071
        1
1071
       -1
1071
        9
1071
      125
1071
        0
1004

1040
0.0
1071
       34
  0
HATCH
  5
55C
330
1F
100
AcDbEntity
  8
A--L1---
 62
     1
100
AcDbHatch
 10
0.0
 20
0.0
 30
0.0
210
0.0
220
0.0
230
1.0
  2
SOLID
 70
     1
 71
     0
 91
        1
 92
        1
 93
        2
 72
     2
 10
1634.527451011609
 20
947.1027674074076
 40
2.0
 50
359.9999899717978
 51
539.9999899717978
 73
     1
 72
     2
 10
1634.527451011609
 20
947.1027674074076
 40
2.0
 50
179.9999899717978
 51
359.9999899717978
 73
     1
 97
        0
 75
     0
 76
     1
 98
        1
 10
1634.527451011609
 20
947.1027674074076
1001
TSA_
1071
        1
1071
       -1
1071
        9
1071
      125
1071
        0
1004

1040
0.0
1071
       34
  0
INSERT
  5
55D
330
1F
100
AcDbEntity
  8
A--L1---
100
AcDbBlockReference
  2
D2DUM$2
 10
2801.494538419017
 20
847.5
 30
0.0
  0
LWPOLYLINE
  5
55E
330
1F
100
AcDbEntity
  8
A--L1---
  6
Continuous
 62
     2
 48
400.0
100
AcDbPolyline
 90
        2
 70
     1
 43
0.0
 10
1636.527451011609
 20
947.1027670573573
 42
1.0
 10
1632.527451011609
 20
947.1027677574579
 42
1.0
1001
TSA_
1071
        1
1071
       -1
1071
        8
1071
      125
1071
        0
1004

1040
0.0
1071
        7
  0
LWPOLYLINE
  5
55F
330
1F
100
AcDbEntity
  8
RP_Beschriftung
 48
400.0
100
AcDbPolyline
 90
        3
 70
     0
 43
0.0
 10
1601.027451011609
 20
900.1027674074076
 10
1601.027451011609
 20
849.1027674074076
 10
1420.531255628165
 20
849.1027674074076
1001
TSA_
1071
        1
1071
       -1
1071
        8
1071
      255
1071
        0
1004

1040
0.0
1071
        5
  0
LWPOLYLINE
  5
560
330
1F
100
AcDbEntity
  8
A--L1---
  6
DASHDOT2
 62
     1
 48
400.0
100
AcDbPolyline
 90
        2
 70
     1
 43
0.0
 10
1603.027451011609
 20
900.1027670573573
 42
1.0
 10
1599.027451011609
 20
900.1027677574579
 42
1.0
1001
TSA_
1071
        1
1071
       -1
1071
        9
1071
      125
1071
        0
1004

1040
0.0
1071
       34
  0
HATCH
  5
561
330
1F
100
AcDbEntity
  8
A--L1---
 62
     1
100
AcDbHatch
 10
0.0
 20
0.0
 30
0.0
210
0.0
220
0.0
230
1.0
  2
SOLID
 70
     1
 71
     0
 91
        1
 92
        1
 93
        2
 72
     2
 10
1601.027451011609
 20
900.1027674074076
 40
2.0
 50
359.9999899717978
 51
539.9999899717978
 73
     1
 72
     2
 10
1601.027451011609
 20
900.1027674074076
 40
2.0
 50
179.9999899717978
 51
359.9999899717978
 73
     1
 97
        0
 75
     0
 76
     1
 98
        1
 10
1601.027451011609
 20
900.1027674074076
1001
TSA_
1071
        1
1071
       -1
1071
        9
1071
      125
1071
        0
1004

1040
0.0
1071
       34
  0
INSERT
  5
562
330
1F
100
AcDbEntity
  8
A--L1---
100
AcDbBlockReference
  2
D2DUM$2
 10
2767.994538419017
 20
800.5
 30
0.0
  0
LWPOLYLINE
  5
563
330
1F
100
AcDbEntity
  8
A--L1---
  6
Continuous
 62
     2
 48
400.0
100
AcDbPolyline
 90
        2
 70
     1
 43
0.0
 10
1603.027451011609
 20
900.1027670573573
 42
1.0
 10
1599.027451011609
 20
900.1027677574579
 42
1.0
1001
TSA_
1071
        1
1071
       -1
1071
        8
1071
      125
1071
        0
1004

1040
0.0
1071
        7
  0
INSERT
  5
568
330
1F
100
AcDbEntity
  8
A--L1---
100
AcDbBlockReference
  2
D2DUM$2
 10
2561.494538419017
 20
852.5
 30
0.0
  0
LWPOLYLINE
  5
56A
330
1F
100
AcDbEntity
  8
RP_Concrete
 48
400.0
100
AcDbPolyline
 90
        2
 70
     0
 43
0.0
 10
1394.527451011609
 20
1072.102767407408
 10
1847.527451011609
 20
1072.102767407408
1001
TSA_
1071
        1
1071
       -1
1071
        8
1071
      121
1071
        0
1004

1040
0.0
1071
       10
  0
LWPOLYLINE
  5
56B
330
1F
100
AcDbEntity
  8
RP_Hilfslinie
100
AcDbPolyline
 90
        2
 70
     0
 43
0.0
 10
1394.527451011609
 20
1127.102767407408
 10
1394.527451011609
 20
875.1027674074076
1001
TSA_
1071
        1
1071
       -1
1071
        8
1071
      255
1071
        0
1004

1040
0.0
1071
       32
  0
LWPOLYLINE
  5
56C
330
1F
100
AcDbEntity
  8
RP_Hilfslinie
100
AcDbPolyline
 90
        2
 70
     0
 43
0.0
 10
1847.527451011609
 20
1127.102767407408
 10
1847.527451011609
 20
875.1027674074076
1001
TSA_
1071
        1
1071
       -1
1071
        8
1071
      255
1071
        0
1004

1040
0.0
1071
       32
  0
LWPOLYLINE
  5
56D
330
1F
100
AcDbEntity
  8
RP_Hilfslinie
100
AcDbPolyline
 90
        2
 70
     0
 43
0.0
 10
1369.527451011609
 20
1102.102767407408
 10
1855.281468661548
 20
1102.102767407408
1001
TSA_
1071
        1
1071
       -1
1071
        8
1071
      255
1071
        0
1004

1040
0.0
1071
       32
  0
LWPOLYLINE
  5
56E
330
1F
100
AcDbEntity
  8
RP_Concrete
 48
400.0
100
AcDbPolyline
 90
        4
 70
     1
 43
0.0
 10
1847.527451011609
 20
1102.102767407408
 10
1847.527451011609
 20
1072.102767407408
 10
1394.527451011609
 20
1072.102767407408
 10
1394.527451011609
 20
1102.102767407408
1001
TSA_
1071
        1
1071
       -1
1071
        9
1071
      125
1071
        0
1004

1040
0.0
1071
       16
  0
HATCH
  5
56F
330
1F
100
AcDbEntity
  8
RP_Concrete
100
AcDbHatch
 10
0.0
 20
0.0
 30
0.0
210
0.0
220
0.0
230
1.0
  2
SOLID
 70
     1
 71
     0
 91
        1
 92
        1
 93
        4
 72
     1
 10
1847.527451011609
 20
1102.102767407408
 11
1847.527451011609
 21
1072.102767407408
 72
     1
 10
1847.527451011609
 20
1072.102767407408
 11
1394.527451011609
 21
1072.102767407408
 72
     1
 10
1394.527451011609
 20
1072.102767407408
 11
1394.527451011609
 21
1102.102767407408
 72
     1
 10
1394.527451011609
 20
1102.102767407408
 11
1847.527451011609
 21
1102.102767407408
 97
        0
 75
     0
 76
     1
 98
        1
 10
1847.527451011609
 20
1102.102767407408
1001
TSA_
1071
        1
1071
       -1
1071
        9
1071
      125
1071
        0
1004

1040
0.0
1071
       16
  0
INSERT
  5
570
330
1F
100
AcDbEntity
  8
A--L1---
100
AcDbBlockReference
  2
D2DUM$2
 10
3014.494538419017
 20
1002.5
 30
0.0
  0
LWPOLYLINE
  5
571
330
1F
100
AcDbEntity
  8
RP_Concrete
 48
400.0
100
AcDbPolyline
 90
        4
 70
     1
 43
0.0
 10
1847.527451011609
 20
1102.102767407408
 10
1847.527451011609
 20
1072.102767407408
 10
1394.527451011609
 20
1072.102767407408
 10
1394.527451011609
 20
1102.102767407408
1001
TSA_
1071
        1
1071
       -1
1071
        9
1071
      127
1071
        0
1004

1040
0.0
1071
       11
  0
HATCH
  5
572
330
1F
100
AcDbEntity
  8
RP_Concrete
 62
   252
100
AcDbHatch
 10
0.0
 20
0.0
 30
0.0
210
0.0
220
0.0
230
1.0
  2
SOLID
 70
     1
 71
     0
 91
        1
 92
        1
 93
        4
 72
     1
 10
1847.527451011609
 20
1102.102767407408
 11
1847.527451011609
 21
1072.102767407408
 72
     1
 10
1847.527451011609
 20
1072.102767407408
 11
1394.527451011609
 21
1072.102767407408
 72
     1
 10
1394.527451011609
 20
1072.102767407408
 11
1394.527451011609
 21
1102.102767407408
 72
     1
 10
1394.527451011609
 20
1102.102767407408
 11
1847.527451011609
 21
1102.102767407408
 97
        0
 75
     0
 76
     1
 98
        1
 10
1847.527451011609
 20
1102.102767407408
1001
TSA_
1071
        1
1071
       -1
1071
        9
1071
      127
1071
        0
1004

1040
0.0
1071
       11
  0
LWPOLYLINE
  5
574
330
1F
100
AcDbEntity
  8
RP_wooden substructure
 48
400.0
100
AcDbPolyline
 90
        4
 70
     1
 43
0.0
 10
1598.527451011609
 20
747.1027674074076
 10
1598.527451011609
 20
781.1027674074076
 10
1643.527451011609
 20
781.1027674074076
 10
1643.527451011609
 20
747.1027674074076
1001
TSA_
1071
        1
1071
       -1
1071
        9
1071
      121
1071
        0
1004

1040
0.0
1071
       49
  0
HATCH
  5
575
102
{ACAD_XDICTIONARY
360
710
102
}
330
1F
100
AcDbEntity
  8
RP_wooden substructure
100
AcDbHatch
 10
0.0
 20
0.0
 30
0.0
210
0.0
220
0.0
230
1.0
  2
ANSI31
 70
     0
 71
     0
 91
        1
 92
        1
 93
        4
 72
     1
 10
1598.527451011609
 20
747.1027674074076
 11
1598.527451011609
 21
781.1027674074076
 72
     1
 10
1598.527451011609
 20
781.1027674074076
 11
1643.527451011609
 21
781.1027674074076
 72
     1
 10
1643.527451011609
 20
781.1027674074076
 11
1643.527451011609
 21
747.1027674074076
 72
     1
 10
1643.527451011609
 20
747.1027674074076
 11
1598.527451011609
 21
747.1027674074076
 97
        0
 75
     0
 76
     1
 52
90.00001494311725
 41
5.0
 77
     0
 78
     1
 53
135.0000149431173
 43
0.0
 44
0.0
 45
-11.22531722369851
 46
-11.2253230789736
 79
     0
 98
        1
 10
1598.527451011609
 20
747.1027674074076
1001
TSA_
1071
        1
1071
       -1
1071
        9
1071
      121
1071
        0
1004

1040
0.0
1071
       49
1001
ACAD
1010
0.0
1020
0.0
1030
0.0
1001
AcadAnnotative
1000
AnnotativeData
1002
{
1070
     1
1070
     0
1002
}
  0
INSERT
  5
576
330
1F
100
AcDbEntity
  8
A--L1---
100
AcDbBlockReference
  2
D2DUM$2
 10
2765.494538419017
 20
647.5
 30
0.0
  0
LWPOLYLINE
  5
577
330
1F
100
AcDbEntity
  8
RP_wooden substructure
 48
400.0
100
AcDbPolyline
 90
        4
 70
     1
 43
0.0
 10
1598.527451011609
 20
747.1027674074076
 10
1598.527451011609
 20
781.1027674074076
 10
1643.527451011609
 20
781.1027674074076
 10
1643.527451011609
 20
747.1027674074076
1001
TSA_
1071
        1
1071
       -1
1071
        8
1071
       97
1071
        0
1004

1040
0.0
1071
        2
  0
LWPOLYLINE
  5
578
330
1F
100
AcDbEntity
  8
RP_breathable membrane
 48
0.25
100
AcDbPolyline
 90
        2
 70
     0
 43
0.0
 10
1394.527451011609
 20
782.1027674074076
 10
1847.527451011609
 20
782.1027674074076
1001
TSA_
1071
        1
1071
       -1
1071
        8
1071
      113
1071
        0
1004

1040
0.0
1071
       17
  0
LWPOLYLINE
  5
579
330
1F
100
AcDbEntity
  8
RP_Beschriftung
 48
400.0
100
AcDbPolyline
 90
        3
 70
     0
 43
0.0
 10
1634.527451011609
 20
782.1027674074076
 10
1634.527451011609
 20
629.1027674074076
 10
1729.527451011609
 20
629.1027674074076
1001
TSA_
1071
        1
1071
       -1
1071
        8
1071
      255
1071
        0
1004

1040
0.0
1071
        5
  0
LWPOLYLINE
  5
57A
330
1F
100
AcDbEntity
  8
A--L1---
  6
DASHDOT2
 62
     1
 48
400.0
100
AcDbPolyline
 90
        2
 70
     1
 43
0.0
 10
1636.527451011609
 20
782.1027670573573
 42
1.0
 10
1632.527451011609
 20
782.1027677574579
 42
1.0
1001
TSA_
1071
        1
1071
       -1
1071
        9
1071
      125
1071
        0
1004

1040
0.0
1071
       34
  0
HATCH
  5
57B
330
1F
100
AcDbEntity
  8
A--L1---
 62
     1
100
AcDbHatch
 10
0.0
 20
0.0
 30
0.0
210
0.0
220
0.0
230
1.0
  2
SOLID
 70
     1
 71
     0
 91
        1
 92
        1
 93
        2
 72
     2
 10
1634.527451011609
 20
782.1027674074076
 40
2.0
 50
359.9999899717978
 51
539.9999899717978
 73
     1
 72
     2
 10
1634.527451011609
 20
782.1027674074076
 40
2.0
 50
179.9999899717978
 51
359.9999899717978
 73
     1
 97
        0
 75
     0
 76
     1
 98
        1
 10
1634.527451011609
 20
782.1027674074076
1001
TSA_
1071
        1
1071
       -1
1071
        9
1071
      125
1071
        0
1004

1040
0.0
1071
       34
  0
INSERT
  5
57C
330
1F
100
AcDbEntity
  8
A--L1---
100
AcDbBlockReference
  2
D2DUM$2
 10
2801.494538419017
 20
682.5
 30
0.0
  0
LWPOLYLINE
  5
57D
330
1F
100
AcDbEntity
  8
A--L1---
  6
Continuous
 62
     2
 48
400.0
100
AcDbPolyline
 90
        2
 70
     1
 43
0.0
 10
1636.527451011609
 20
782.1027670573573
 42
1.0
 10
1632.527451011609
 20
782.1027677574579
 42
1.0
1001
TSA_
1071
        1
1071
       -1
1071
        8
1071
      125
1071
        0
1004

1040
0.0
1071
        7
  0
LWPOLYLINE
  5
57E
330
1F
100
AcDbEntity
  8
RP_Beschriftung
 48
400.0
100
AcDbPolyline
 90
        3
 70
     0
 43
0.0
 10
1621.027451011609
 20
735.1027674074076
 10
1621.027451011609
 20
684.1027674074076
 10
1419.458572121973
 20
684.1027674074076
1001
TSA_
1071
        1
1071
       -1
1071
        8
1071
      255
1071
        0
1004

1040
0.0
1071
        5
  0
LWPOLYLINE
  5
57F
330
1F
100
AcDbEntity
  8
A--L1---
  6
DASHDOT2
 62
     1
 48
400.0
100
AcDbPolyline
 90
        2
 70
     1
 43
0.0
 10
1623.027451011609
 20
735.1027670573573
 42
1.0
 10
1619.027451011609
 20
735.1027677574579
 42
1.0
1001
TSA_
1071
        1
1071
       -1
1071
        9
1071
      125
1071
        0
1004

1040
0.0
1071
       34
  0
HATCH
  5
580
330
1F
100
AcDbEntity
  8
A--L1---
 62
     1
100
AcDbHatch
 10
0.0
 20
0.0
 30
0.0
210
0.0
220
0.0
230
1.0
  2
SOLID
 70
     1
 71
     0
 91
        1
 92
        1
 93
        2
 72
     2
 10
1621.027451011609
 20
735.1027674074076
 40
2.0
 50
359.9999899717978
 51
539.9999899717978
 73
     1
 72
     2
 10
1621.027451011609
 20
735.1027674074076
 40
2.0
 50
179.9999899717978
 51
359.9999899717978
 73
     1
 97
        0
 75
     0
 76
     1
 98
        1
 10
1621.027451011609
 20
735.1027674074076
1001
TSA_
1071
        1
1071
       -1
1071
        9
1071
      125
1071
        0
1004

1040
0.0
1071
       34
  0
INSERT
  5
581
330
1F
100
AcDbEntity
  8
A--L1---
100
AcDbBlockReference
  2
D2DUM$2
 10
2787.994538419017
 20
635.5
 30
0.0
  0
LWPOLYLINE
  5
582
330
1F
100
AcDbEntity
  8
A--L1---
  6
Continuous
 62
     2
 48
400.0
100
AcDbPolyline
 90
        2
 70
     1
 43
0.0
 10
1623.027451011609
 20
735.1027670573573
 42
1.0
 10
1619.027451011609
 20
735.1027677574579
 42
1.0
1001
TSA_
1071
        1
1071
       -1
1071
        8
1071
      125
1071
        0
1004

1040
0.0
1071
        7
  0
LWPOLYLINE
  5
583
330
1F
100
AcDbEntity
  8
RP_Hilfslinie
100
AcDbPolyline
 90
        2
 70
     0
 43
0.0
 10
1394.527451011609
 20
807.1027674074076
 10
1394.527451011609
 20
710.1027674074076
1001
TSA_
1071
        1
1071
       -1
1071
        8
1071
      255
1071
        0
1004

1040
0.0
1071
       32
  0
LWPOLYLINE
  5
584
330
1F
100
AcDbEntity
  8
RP_Hilfslinie
100
AcDbPolyline
 90
        2
 70
     0
 43
0.0
 10
1847.527451011609
 20
807.1027674074076
 10
1847.527451011609
 20
710.1027674074076
1001
TSA_
1071
        1
1071
       -1
1071
        8
1071
      255
1071
        0
1004

1040
0.0
1071
       32
  0
HATCH
  5
586
102
{ACAD_XDICTIONARY
360
618
102
}
330
1F
100
AcDbEntity
  8
RP_Platte
100
AcDbHatch
 10
0.0
 20
0.0
 30
0.0
210
0.0
220
0.0
230
1.0
  2
SOLID
 70
     1
 71
     0
 91
        1
 92
        1
 93
        4
 72
     1
 10
1394.527451011609
 20
900.1027674074076
 11
1616.027451011609
 21
900.1027674074076
 72
     1
 10
1616.027451011609
 20
900.1027674074076
 11
1616.027451011609
 21
906.1027674074076
 72
     1
 10
1616.027451011609
 20
906.1027674074076
 11
1394.527451011609
 21
906.1027674074076
 72
     1
 10
1394.527451011609
 20
906.1027674074076
 11
1394.527451011609
 21
900.1027674074076
 97
        0
 75
     0
 76
     1
 98
        1
 10
1394.527451011609
 20
900.1027674074076
1001
TSA_
1071
        1
1071
       -1
1071
        9
1071
      113
1071
        0
1004

1040
0.0
1071
       29
1001
ACAD
1010
0.0
1020
0.0
1030
0.0
1001
AcadAnnotative
1000
AnnotativeData
1002
{
1070
     1
1070
     0
1002
}
  0
INSERT
  5
587
330
1F
100
AcDbEntity
  8
A--L1---
100
AcDbBlockReference
  2
D2DUM$2
 10
2561.494538419017
 20
800.5
 30
0.0
  0
LWPOLYLINE
  5
588
330
1F
100
AcDbEntity
  8
RP_Platte
 48
400.0
100
AcDbPolyline
 90
        4
 70
     0
 43
0.0
 10
1394.527451011609
 20
900.1027674074076
 10
1616.027451011609
 20
900.1027674074076
 10
1616.027451011609
 20
906.1027674074076
 10
1394.527451011609
 20
906.1027674074076
1001
TSA_
1071
        1
1071
       -1
1071
        8
1071
      125
1071
        0
1004

1040
0.0
1071
       10
  0
INSERT
  5
58B
330
1F
100
AcDbEntity
  8
A--L1---
100
AcDbBlockReference
  2
D2DUM$2
 10
2747.994538419017
 20
806.5
 30
0.0
  0
LWPOLYLINE
  5
58C
330
1F
100
AcDbEntity
  8
RP_EPDM
 48
400.0
100
AcDbPolyline
 90
        4
 70
     1
 43
0.0
 10
1571.027451011609
 20
906.1027674074076
 10
1571.027451011609
 20
912.1027674074076
 10
1671.027451011609
 20
912.1027674074076
 10
1671.027451011609
 20
906.1027674074076
1001
TSA_
1071
        1
1071
       -1
1071
        8
1071
      125
1071
        0
1004

1040
0.0
1071
       10
  0
HATCH
  5
58E
102
{ACAD_XDICTIONARY
360
610
102
}
330
1F
100
AcDbEntity
  8
RP_Platte
100
AcDbHatch
 10
0.0
 20
0.0
 30
0.0
210
0.0
220
0.0
230
1.0
  2
SOLID
 70
     1
 71
     0
 91
        1
 92
        1
 93
        4
 72
     1
 10
1394.527451011609
 20
735.1027674074076
 11
1847.527451011609
 21
735.1027674074076
 72
     1
 10
1847.527451011609
 20
735.1027674074076
 11
1847.527451011609
 21
741.1027674074076
 72
     1
 10
1847.527451011609
 20
741.1027674074076
 11
1394.527451011609
 21
741.1027674074076
 72
     1
 10
1394.527451011609
 20
741.1027674074076
 11
1394.527451011609
 21
735.1027674074076
 97
        0
 75
     0
 76
     1
 98
        1
 10
1394.527451011609
 20
735.1027674074076
1001
TSA_
1071
        1
1071
       -1
1071
        9
1071
      113
1071
        0
1004

1040
0.0
1071
       29
1001
ACAD
1010
0.0
1020
0.0
1030
0.0
1001
AcadAnnotative
1000
AnnotativeData
1002
{
1070
     1
1070
     0
1002
}
  0
INSERT
  5
58F
330
1F
100
AcDbEntity
  8
A--L1---
100
AcDbBlockReference
  2
D2DUM$2
 10
2561.494538419017
 20
635.5
 30
0.0
  0
LWPOLYLINE
  5
590
330
1F
100
AcDbEntity
  8
RP_Platte
 48
400.0
100
AcDbPolyline
 90
        4
 70
     0
 43
0.0
 10
1394.527451011609
 20
735.1027674074076
 10
1847.527451011609
 20
735.1027674074076
 10
1847.527451011609
 20
741.1027674074076
 10
1394.527451011609
 20
741.1027674074076
1001
TSA_
1071
        1
1071
       -1
1071
        8
1071
      125
1071
        0
1004

1040
0.0
1071
       10
  0
INSERT
  5
593
330
1F
100
AcDbEntity
  8
A--L1---
100
AcDbBlockReference
  2
D2DUM$2
 10
2747.994538419017
 20
641.5
 30
0.0
  0
LWPOLYLINE
  5
594
330
1F
100
AcDbEntity
  8
RP_EPDM
 48
400.0
100
AcDbPolyline
 90
        4
 70
     1
 43
0.0
 10
1583.527451011609
 20
741.1027674074076
 10
1583.527451011609
 20
747.1027674074076
 10
1658.527451011609
 20
747.1027674074076
 10
1658.527451011609
 20
741.1027674074076
1001
TSA_
1071
        1
1071
       -1
1071
        8
1071
      125
1071
        0
1004

1040
0.0
1071
       10
  0
HATCH
  5
596
102
{ACAD_XDICTIONARY
360
615
102
}
330
1F
100
AcDbEntity
  8
RP_Platte
100
AcDbHatch
 10
0.0
 20
0.0
 30
0.0
210
0.0
220
0.0
230
1.0
  2
SOLID
 70
     1
 71
     0
 91
        1
 92
        1
 93
        4
 72
     1
 10
1847.527451011609
 20
906.1027674074076
 11
1626.027451011609
 21
906.1027674074076
 72
     1
 10
1626.027451011609
 20
906.1027674074076
 11
1626.027451011609
 21
900.1027674074076
 72
     1
 10
1626.027451011609
 20
900.1027674074076
 11
1847.527451011609
 21
900.1027674074076
 72
     1
 10
1847.527451011609
 20
900.1027674074076
 11
1847.527451011609
 21
906.1027674074076
 97
        0
 75
     0
 76
     1
 98
        1
 10
1847.527451011609
 20
906.1027674074076
1001
TSA_
1071
        1
1071
       -1
1071
        9
1071
      113
1071
        0
1004

1040
0.0
1071
       29
1001
ACAD
1010
0.0
1020
0.0
1030
0.0
1001
AcadAnnotative
1000
AnnotativeData
1002
{
1070
     1
1070
     0
1002
}
  0
INSERT
  5
597
330
1F
100
AcDbEntity
  8
A--L1---
100
AcDbBlockReference
  2
D2DUM$2
 10
3014.494538419017
 20
806.5
 30
0.0
  0
LWPOLYLINE
  5
598
330
1F
100
AcDbEntity
  8
RP_Platte
 48
400.0
100
AcDbPolyline
 90
        4
 70
     0
 43
0.0
 10
1847.527451011609
 20
906.1027674074076
 10
1626.027451011609
 20
906.1027674074076
 10
1626.027451011609
 20
900.1027674074076
 10
1847.527451011609
 20
900.1027674074076
1001
TSA_
1071
        1
1071
       -1
1071
        8
1071
      125
1071
        0
1004

1040
0.0
1071
       10
  0
LINE
  5
6C5
330
1F
100
AcDbEntity
  8
RP_Wärmedämmung
100
AcDbLine
 10
1657.461968455638
 20
970.89478172045
 30
0.0
 11
1639.942049279909
 21
1052.588570192406
 31
0.0
  0
ARC
  5
6C6
330
1F
100
AcDbEntity
  8
RP_Wärmedämmung
100
AcDbCircle
 10
1658.975726785322
 20
1053.091344554305
 30
0.0
 40
19.04031673683679
100
AcDbArc
 50
358.4977918125878
 51
181.5131154644909
  0
LINE
  5
6C7
330
1F
100
AcDbEntity
  8
RP_Wärmedämmung
100
AcDbLine
 10
1678.009499657944
 20
1052.592193602662
 30
0.0
 11
1657.461968455638
 21
970.89478172045
 31
0.0
  0
LINE
  5
6C8
330
1F
100
AcDbEntity
  8
RP_Wärmedämmung
100
AcDbLine
 10
1619.505404201235
 20
971.6568690598815
 30
0.0
 11
1602.029807188398
 21
1052.58859817267
 31
0.0
  0
ARC
  5
6C9
330
1F
100
AcDbEntity
  8
RP_Wärmedämmung
100
AcDbCircle
 10
1620.985928664328
 20
1053.171454361313
 30
0.0
 40
18.96508008806783
100
AcDbArc
 50
358.2387597225083
 51
181.7611557058088
  0
LINE
  5
6CA
330
1F
100
AcDbEntity
  8
RP_Wärmedämmung
100
AcDbLine
 10
1639.942049279909
 20
1052.588570192406
 30
0.0
 11
1619.505404201235
 21
971.6568690598815
 31
0.0
  0
LINE
  5
6CB
330
1F
100
AcDbEntity
  8
RP_Wärmedämmung
100
AcDbLine
 10
1581.666412123034
 20
969.0268712972522
 30
0.0
 11
1564.13836750582
 21
1052.621524849857
 31
0.0
  0
ARC
  5
6CC
330
1F
100
AcDbEntity
  8
RP_Wärmedämmung
100
AcDbCircle
 10
1583.084616998092
 20
1053.214574526872
 30
0.0
 40
18.95552894917115
100
AcDbArc
 50
358.1075534555854
 51
181.7928694801961
  0
LINE
  5
6CD
330
1F
100
AcDbEntity
  8
RP_Wärmedämmung
100
AcDbLine
 10
1602.029807188398
 20
1052.58859817267
 30
0.0
 11
1581.666412123034
 21
969.0268712972522
 31
0.0
  0
LINE
  5
6CE
330
1F
100
AcDbEntity
  8
RP_Wärmedämmung
100
AcDbLine
 10
1543.748628274819
 20
969.0660672278727
 30
0.0
 11
1526.246927823218
 21
1053.776827951056
 31
0.0
  0
ARC
  5
6CF
330
1F
100
AcDbEntity
  8
RP_Wärmedämmung
100
AcDbCircle
 10
1545.192145700321
 20
1053.182713061866
 30
0.0
 40
18.95453119738017
100
AcDbArc
 50
358.303391673248
 51
178.2038146090482
  0
LINE
  5
6D0
330
1F
100
AcDbEntity
  8
RP_Wärmedämmung
100
AcDbLine
 10
1564.13836750582
 20
1052.621524849857
 30
0.0
 11
1543.748628274819
 21
969.0660672278727
 31
0.0
  0
LINE
  5
6D1
330
1F
100
AcDbEntity
  8
RP_Wärmedämmung
100
AcDbLine
 10
1505.82815784511
 20
969.0660672279014
 30
0.0
 11
1488.355488140639
 21
1053.766365822264
 31
0.0
  0
ARC
  5
6D2
330
1F
100
AcDbEntity
  8
RP_Wärmedämmung
100
AcDbCircle
 10
1507.301370682142
 20
1053.182333894563
 30
0.0
 40
18.95488218293592
100
AcDbArc
 50
1.797298810194142
 51
178.2343408326539
  0
LINE
  5
6D3
330
1F
100
AcDbEntity
  8
RP_Wärmedämmung
100
AcDbLine
 10
1526.246927823218
 20
1053.776827951056
 30
0.0
 11
1505.82815784511
 21
969.0660672279014
 31
0.0
  0
ARC
  5
6D4
330
1F
100
AcDbEntity
  8
RP_Wärmedämmung
100
AcDbCircle
 10
1524.788393059966
 20
970.3459564139002
 30
0.0
 40
19.00338484931246
100
AcDbArc
 50
183.8618279366962
 51
356.1381720632172
  0
ARC
  5
6D5
330
1F
100
AcDbEntity
  8
RP_Wärmedämmung
100
AcDbCircle
 10
1562.708863489675
 20
970.3459564139025
 30
0.0
 40
19.00338484931454
100
AcDbArc
 50
183.8618279367893
 51
356.0197178514494
  0
ARC
  5
6D6
330
1F
100
AcDbEntity
  8
RP_Wärmedämmung
100
AcDbCircle
 10
1600.588345708335
 20
970.3068000759713
 30
0.0
 40
18.96517303599222
100
AcDbArc
 50
183.8697406342655
 51
4.082152905740633
  0
ARC
  5
6D7
330
1F
100
AcDbEntity
  8
RP_Wärmedämmung
100
AcDbCircle
 10
1638.46563941609
 20
970.376979873871
 30
0.0
 40
19.00338484931318
100
AcDbArc
 50
176.1381720632689
 51
1.561381460693988
  0
ARC
  5
6D8
330
1F
100
AcDbEntity
  8
RP_Wärmedämmung
100
AcDbCircle
 10
1676.495428101044
 20
970.383435581944
 30
0.0
 40
19.04032722793004
100
AcDbArc
 50
178.4610821955771
 51
356.1477985384226
  0
ARC
  5
6D9
330
1F
100
AcDbEntity
  8
RP_Wärmedämmung
100
AcDbCircle
 10
1486.867922630254
 20
970.3459564139016
 30
0.0
 40
19.00338484931324
100
AcDbArc
 50
176.1381720632696
 51
356.1381720632999
  0
LINE
  5
6DA
330
1F
100
AcDbEntity
  8
RP_Wärmedämmung
100
AcDbLine
 10
1695.492737000887
 20
969.1042500947667
 30
0.0
 11
1678.009499657944
 21
1052.592193602662
 31
0.0
  0
ARC
  5
6DB
330
1F
100
AcDbEntity
  8
RP_Wärmedämmung
100
AcDbCircle
 10
1697.03639721015
 20
1053.101968723131
 30
0.0
 40
19.03372536146273
100
AcDbArc
 50
351.7240000258586
 51
181.5347208893499
  0
LINE
  5
6DC
330
1F
100
AcDbEntity
  8
RP_Wärmedämmung
100
AcDbLine
 10
1715.871908593436
 20
1050.362222007525
 30
0.0
 11
1695.492737000887
 21
969.1042500947667
 31
0.0
  0
LINE
  5
6DD
330
1F
100
AcDbEntity
  8
RP_Wärmedämmung
100
AcDbLine
 10
1467.907687415398
 20
971.6258455999118
 30
0.0
 11
1450.486677079679
 21
1052.621524849857
 31
0.0
  0
ARC
  5
6DE
330
1F
100
AcDbEntity
  8
RP_Wärmedämmung
100
AcDbCircle
 10
1469.420060298385
 20
1053.227761151857
 30
0.0
 40
18.9430864053409
100
AcDbArc
 50
1.629298059074717
 51
181.8339521173071
  0
LINE
  5
6DF
330
1F
100
AcDbEntity
  8
RP_Wärmedämmung
100
AcDbLine
 10
1488.355488140639
 20
1053.766365822264
 30
0.0
 11
1467.907687415398
 21
971.6258455999118
 31
0.0
  0
ARC
  5
6E0
330
1F
100
AcDbEntity
  8
RP_Wärmedämmung
100
AcDbCircle
 10
1714.390745208518
 20
971.10272989587
 30
0.0
 40
19.00338484931327
100
AcDbArc
 50
186.036639140777
 51
356.1381720632997
  0
ARC
  5
6E1
330
1F
100
AcDbEntity
  8
RP_Wärmedämmung
100
AcDbCircle
 10
1393.296425333038
 20
1053.558076587979
 30
0.0
 40
19.23172921811268
100
AcDbArc
 50
358.6807770704714
 51
74.6389669951304
  0
LINE
  5
6E2
330
1F
100
AcDbEntity
  8
RP_Wärmedämmung
100
AcDbLine
 10
1412.52305701551
 20
1053.115309306694
 30
0.0
 11
1394.527451011609
 21
981.5644051471836
 31
0.0
  0
ARC
  5
6E3
330
1F
100
AcDbEntity
  8
RP_Wärmedämmung
100
AcDbCircle
 10
1411.008985458611
 20
970.9065512859761
 30
0.0
 40
19.04032722793015
100
AcDbArc
 50
210.047346442621
 51
356.1477985384212
  0
LINE
  5
6E4
330
1F
100
AcDbEntity
  8
RP_Wärmedämmung
100
AcDbLine
 10
1430.006294358454
 20
969.6273657987983
 30
0.0
 11
1412.52305701551
 21
1053.115309306694
 31
0.0
  0
ARC
  5
6E5
330
1F
100
AcDbEntity
  8
RP_Wärmedämmung
100
AcDbCircle
 10
1431.549954567716
 20
1053.625084427164
 30
0.0
 40
19.03372536146273
100
AcDbArc
 50
351.7240000258586
 51
181.5347208893499
  0
LINE
  5
6E6
330
1F
100
AcDbEntity
  8
RP_Wärmedämmung
100
AcDbLine
 10
1450.385465951003
 20
1050.885337711557
 30
0.0
 11
1430.006294358454
 21
969.6273657987983
 31
0.0
  0
ARC
  5
6E7
330
1F
100
AcDbEntity
  8
RP_Wärmedämmung
100
AcDbCircle
 10
1448.904302566084
 20
971.6258455999016
 30
0.0
 40
19.00338484931327
100
AcDbArc
 50
186.036639140777
 51
356.1381720633005
  0
LINE
  5
6E8
330
1F
100
AcDbEntity
  8
RP_Wärmedämmung
100
AcDbLine
 10
1733.553359914556
 20
969.6140252152363
 30
0.0
 11
1716.070122571612
 21
1053.101968723131
 31
0.0
  0
ARC
  5
6E9
330
1F
100
AcDbEntity
  8
RP_Wärmedämmung
100
AcDbCircle
 10
1735.097020123818
 20
1053.611743843601
 30
0.0
 40
19.03372536146274
100
AcDbArc
 50
103.7149334583685
 51
181.5347208893492
  0
LWPOLYLINE
  5
6EA
330
1F
100
AcDbEntity
  8
RP_Wärmedämmung
  6
Continuous
 48
400.0
100
AcDbPolyline
 90
        4
 70
     1
 43
0.0
 10
1847.527451011609
 20
1072.102767407408
 10
1847.527451011609
 20
952.1027674074076
 10
1394.527451011609
 20
952.1027674074076
 10
1394.527451011609
 20
1072.102767407408
1001
TSA_
1071
        1
1071
       -1
1071
        8
1071
      121
1071
        0
1004

1040
0.0
1071
       10
  0
LINE
  5
6F4
330
1F
100
AcDbEntity
  8
RP_Wärmedämmung
100
AcDbLine
 10
1847.295693830921
 20
969.05272664431
 30
0.0
 11
1829.79399337932
 21
1053.763487367493
 31
0.0
  0
LINE
  5
6F7
330
1F
100
AcDbEntity
  8
RP_Wärmedämmung
100
AcDbLine
 10
1809.375223401212
 20
969.0527266443387
 30
0.0
 11
1791.902553696741
 21
1053.753025238701
 31
0.0
  0
ARC
  5
6F8
330
1F
100
AcDbEntity
  8
RP_Wärmedämmung
100
AcDbCircle
 10
1810.848436238244
 20
1053.168993311001
 30
0.0
 40
18.95488218293592
100
AcDbArc
 50
1.797298810194185
 51
178.234340832654
  0
LINE
  5
6F9
330
1F
100
AcDbEntity
  8
RP_Wärmedämmung
100
AcDbLine
 10
1829.79399337932
 20
1053.763487367493
 30
0.0
 11
1809.375223401212
 21
969.0527266443387
 31
0.0
  0
ARC
  5
6FA
330
1F
100
AcDbEntity
  8
RP_Wärmedämmung
100
AcDbCircle
 10
1828.335458616068
 20
970.3326158303375
 30
0.0
 40
19.00338484931246
100
AcDbArc
 50
183.8618279366962
 51
356.1381720632171
  0
ARC
  5
6FF
330
1F
100
AcDbEntity
  8
RP_Wärmedämmung
100
AcDbCircle
 10
1790.414988186356
 20
970.3326158303389
 30
0.0
 40
19.00338484931324
100
AcDbArc
 50
176.1381720632696
 51
356.1381720632997
  0
LINE
  5
703
330
1F
100
AcDbEntity
  8
RP_Wärmedämmung
100
AcDbLine
 10
1771.454752971501
 20
971.6125050163491
 30
0.0
 11
1754.033742635781
 21
1052.608184266294
 31
0.0
  0
ARC
  5
704
330
1F
100
AcDbEntity
  8
RP_Wärmedämmung
100
AcDbCircle
 10
1772.967125854487
 20
1053.214420568295
 30
0.0
 40
18.9430864053409
100
AcDbArc
 50
1.629298059074756
 51
181.833952117307
  0
LINE
  5
705
330
1F
100
AcDbEntity
  8
RP_Wärmedämmung
100
AcDbLine
 10
1791.902553696741
 20
1053.753025238701
 30
0.0
 11
1771.454752971501
 21
971.6125050163491
 31
0.0
  0
ARC
  5
707
330
1F
100
AcDbEntity
  8
RP_Wärmedämmung
100
AcDbCircle
 10
1735.097020123818
 20
1053.611743843601
 30
0.0
 40
19.03372536146273
100
AcDbArc
 50
351.7240000258586
 51
181.5347208893492
  0
LINE
  5
708
330
1F
100
AcDbEntity
  8
RP_Wärmedämmung
100
AcDbLine
 10
1753.932531507104
 20
1050.871997127995
 30
0.0
 11
1733.553359914556
 21
969.6140252152356
 31
0.0
  0
ARC
  5
709
330
1F
100
AcDbEntity
  8
RP_Wärmedämmung
100
AcDbCircle
 10
1752.451368122187
 20
971.6125050163389
 30
0.0
 40
19.00338484931327
100
AcDbArc
 50
186.036639140777
 51
356.1381720633004
  0
ARC
  5
70C
330
1F
100
AcDbEntity
  8
RP_Wärmedämmung
100
AcDbCircle
 10
1848.739211256423
 20
1053.169372478304
 30
0.0
 40
18.95453119738017
100
AcDbArc
 50
93.66200480125578
 51
178.2038146090488
  0
HATCH
  5
713
102
{ACAD_XDICTIONARY
360
714
102
}
330
1F
100
AcDbEntity
  8
RP_EPDM
100
AcDbHatch
 10
0.0
 20
0.0
 30
0.0
210
0.0
220
0.0
230
1.0
  2
SOLID
 70
     1
 71
     0
 91
        1
 92
        3
 72
     0
 73
     1
 93
        4
 10
1571.027451011609
 20
912.1027674074076
 10
1571.027451011609
 20
906.1027674074076
 10
1671.027451011609
 20
906.1027674074076
 10
1671.027451011609
 20
912.1027674074076
 97
        0
 75
     0
 76
     1
 98
        0
1001
ACAD
1010
0.0
1020
0.0
1030
0.0
1001
AcadAnnotative
1000
AnnotativeData
1002
{
1070
     1
1070
     0
1002
}
  0
HATCH
  5
717
102
{ACAD_XDICTIONARY
360
718
102
}
330
1F
100
AcDbEntity
  8
RP_EPDM
100
AcDbHatch
 10
0.0
 20
0.0
 30
0.0
210
0.0
220
0.0
230
1.0
  2
SOLID
 70
     1
 71
     0
 91
        1
 92
        3
 72
     0
 73
     1
 93
        4
 10
1583.527451011609
 20
747.1027674074076
 10
1583.527451011609
 20
741.1027674074076
 10
1658.527451011609
 20
741.1027674074076
 10
1658.527451011609
 20
747.1027674074076
 97
        0
 75
     0
 76
     1
 98
        0
1001
ACAD
1010
0.0
1020
0.0
1030
0.0
1001
AcadAnnotative
1000
AnnotativeData
1002
{
1070
     1
1070
     0
1002
}
  0
HATCH
  5
80B
102
{ACAD_XDICTIONARY
360
80C
102
}
330
1F
100
AcDbEntity
  8
RP_EPDM
  6
Continuous
370
     0
100
AcDbHatch
 10
0.0
 20
0.0
 30
0.0
210
0.0
220
0.0
230
1.0
  2
ANSI33
 70
     0
 71
     0
 91
        1
 92
        3
 72
     0
 73
     1
 93
        4
 10
1394.527451011609
 20
1102.102767407408
 10
1394.527451011609
 20
1072.102767407408
 10
1847.527451011609
 20
1072.102767407408
 10
1847.527451011609
 20
1102.102767407408
 97
        0
 75
     0
 76
     1
 52
90.0
 41
100.0
 77
     0
 78
     2
 53
135.0
 43
564.8521580428599
 44
3013.857528149595
 45
-17.67766952966369
 46
-17.67766952966369
 79
     0
 53
135.0
 43
564.8521580428599
 44
3031.535197649595
 45
-17.67766952966369
 46
-17.67766952966369
 79
     2
 49
12.5
 49
-6.25
 98
        0
1001
ACAD
1010
0.0
1020
0.0
1030
0.0
1001
AcadAnnotative
1000
AnnotativeData
1002
{
1070
     1
1070
     0
1002
}
  0
MTEXT
  5
80F
330
1F
100
AcDbEntity
  8
RP_Hilfslinie
100
AcDbMText
 10
1329.011705161214
 20
851.3397393588735
 30
0.0
 40
2.5
 41
84.98263888888869
 46
0.0
 71
     1
 72
     1
  1

 73
     1
 44
1.0
  0
MTEXT
  5
810
102
{ACAD_XDICTIONARY
360
811
102
}
330
1F
100
AcDbEntity
  8
RP_Beschriftung
100
AcDbMText
 10
1344.123405123541
 20
862.0625402847995
 30
0.0
 40
7.0
 41
231.6088237795805
 46
7.119
 71
     1
 72
     1
  1
{\fArial|b0|i0|c0|p0;CLOU PROLONGE ROCKPANEL}
  7
TSA-0_18
 73
     1
 44
1.0
1001
AcadAnnotative
1000
AnnotativeData
1002
{
1070
     1
1070
     0
1002
}
1001
ACAD
1000
ACAD_MTEXT_DEFINED_HEIGHT_BEGIN
1070
    46
1040
7.119
1000
ACAD_MTEXT_DEFINED_HEIGHT_END
  0
MTEXT
  5
849
102
{ACAD_XDICTIONARY
360
84A
102
}
330
1F
100
AcDbEntity
  8
RP_Beschriftung
100
AcDbMText
 10
1639.527451011609
 20
847.1873865666286
 30
0.0
 40
7.0
 41
215.1036993153343
 46
7.119
 71
     1
 72
     1
  1
{\fArial|b0|i0|c0|p0;PARA-PLUIE}
  7
TSA-0_18
 73
     1
 44
1.0
1001
AcadAnnotative
1000
AnnotativeData
1002
{
1070
     1
1070
     0
1002
}
1001
ACAD
1000
ACAD_MTEXT_DEFINED_HEIGHT_BEGIN
1070
    46
1040
7.119
1000
ACAD_MTEXT_DEFINED_HEIGHT_END
  0
MTEXT
  5
882
102
{ACAD_XDICTIONARY
360
883
102
}
330
1F
100
AcDbEntity
  8
RP_Beschriftung
100
AcDbMText
 10
1639.527451011609
 20
833.182756936999
 30
0.0
 40
7.0
 41
211.6200750297539
 46
7.119
 71
     1
 72
     1
  1
{\fArial|b0|i0|c0|p0;CHEVRONS ≥ 28 x 70 mm}
  7
TSA-0_18
 73
     1
 44
1.0
1001
AcadAnnotative
1000
AnnotativeData
1002
{
1070
     1
1070
     0
1002
}
1001
ACAD
1000
ACAD_MTEXT_DEFINED_HEIGHT_BEGIN
1070
    46
1040
7.119
1000
ACAD_MTEXT_DEFINED_HEIGHT_END
  0
MTEXT
  5
8BB
102
{ACAD_XDICTIONARY
360
8BC
102
}
330
1F
100
AcDbEntity
  8
RP_Beschriftung
100
AcDbMText
 10
1639.527451011609
 20
806.1283587888506
 30
0.0
 40
7.0
 41
208.0
 46
7.119
 71
     1
 72
     1
  1
{\fArial|b0|i0|c0|p0;PANNEAU ROCKPANEL ≥ 6 mm}
  7
TSA-0_18
 73
     1
 44
1.0
1001
AcadAnnotative
1000
AnnotativeData
1002
{
1070
     1
1070
     0
1002
}
1001
ACAD
1000
ACAD_MTEXT_DEFINED_HEIGHT_BEGIN
1070
    46
1040
7.119
1000
ACAD_MTEXT_DEFINED_HEIGHT_END
  0
MTEXT
  5
8F4
102
{ACAD_XDICTIONARY
360
8F5
102
}
330
1F
100
AcDbEntity
  8
RP_Beschriftung
100
AcDbMText
 10
1639.527451011609
 20
819.2159652703323
 30
0.0
 40
7.0
 41
215.60135992756
 46
7.119
 71
     1
 72
     1
  1
{\fArial|b0|i0|c0|p0;BANDE DE ROCKPANEL}
  7
TSA-0_18
 73
     1
 44
1.0
1001
AcadAnnotative
1000
AnnotativeData
1002
{
1070
     1
1070
     0
1002
}
1001
ACAD
1000
ACAD_MTEXT_DEFINED_HEIGHT_BEGIN
1070
    46
1040
7.119
1000
ACAD_MTEXT_DEFINED_HEIGHT_END
  0
MTEXT
  5
98A
102
{ACAD_XDICTIONARY
360
98B
102
}
330
1F
100
AcDbEntity
  8
RP_Beschriftung
100
AcDbMText
 10
1639.527451011609
 20
682.1873865666286
 30
0.0
 40
7.0
 41
161.3874569832171
 46
7.119
 71
     1
 72
     1
  1
{\fArial|b0|i0|c0|p0;PARA-PLUIE}
  7
TSA-0_18
 73
     1
 44
1.0
1001
AcadAnnotative
1000
AnnotativeData
1002
{
1070
     1
1070
     0
1002
}
1001
ACAD
1000
ACAD_MTEXT_DEFINED_HEIGHT_BEGIN
1070
    46
1040
7.119
1000
ACAD_MTEXT_DEFINED_HEIGHT_END
  0
MTEXT
  5
98E
102
{ACAD_XDICTIONARY
360
98F
102
}
330
1F
100
AcDbEntity
  8
RP_Beschriftung
100
AcDbMText
 10
1639.527451011609
 20
668.182756936999
 30
0.0
 40
7.0
 41
167.857044942152
 46
7.119
 71
     1
 72
     1
  1
{\fArial|b0|i0|c0|p0;CHEVRONS ≥ 28 x 45 mm}
  7
TSA-0_18
 73
     1
 44
1.0
1001
AcadAnnotative
1000
AnnotativeData
1002
{
1070
     1
1070
     0
1002
}
1001
ACAD
1000
ACAD_MTEXT_DEFINED_HEIGHT_BEGIN
1070
    46
1040
7.119
1000
ACAD_MTEXT_DEFINED_HEIGHT_END
  0
MTEXT
  5
992
102
{ACAD_XDICTIONARY
360
993
102
}
330
1F
100
AcDbEntity
  8
RP_Beschriftung
100
AcDbMText
 10
1639.527451011609
 20
641.1283587888506
 30
0.0
 40
7.0
 41
201.3402730084661
 46
7.119
 71
     1
 72
     1
  1
{\fArial|b0|i0|c0|p0;PANNEAU ROCKPANEL ≥ 6 mm}
  7
TSA-0_18
 73
     1
 44
1.0
1001
AcadAnnotative
1000
AnnotativeData
1002
{
1070
     1
1070
     0
1002
}
1001
ACAD
1000
ACAD_MTEXT_DEFINED_HEIGHT_BEGIN
1070
    46
1040
7.119
1000
ACAD_MTEXT_DEFINED_HEIGHT_END
  0
MTEXT
  5
996
102
{ACAD_XDICTIONARY
360
997
102
}
330
1F
100
AcDbEntity
  8
RP_Beschriftung
100
AcDbMText
 10
1639.527451011609
 20
654.2159652703323
 30
0.0
 40
7.0
 41
194.5363193256919
 46
7.119
 71
     1
 72
     1
  1
{\fArial|b0|i0|c0|p0;BANDE DE ROCKPANEL}
  7
TSA-0_18
 73
     1
 44
1.0
1001
AcadAnnotative
1000
AnnotativeData
1002
{
1070
     1
1070
     0
1002
}
1001
ACAD
1000
ACAD_MTEXT_DEFINED_HEIGHT_BEGIN
1070
    46
1040
7.119
1000
ACAD_MTEXT_DEFINED_HEIGHT_END
  0
MTEXT
  5
9CF
102
{ACAD_XDICTIONARY
360
9D0
102
}
330
1F
100
AcDbEntity
  8
RP_Beschriftung
100
AcDbMText
 10
1343.050721617349
 20
697.0625402847995
 30
0.0
 40
7.0
 41
211.4191520271038
 46
7.119
 71
     1
 72
     1
  1
{\fArial|b0|i0|c0|p0;CLOU PROLONGE ROCKPANEL}
  7
TSA-0_18
 73
     1
 44
1.0
1001
AcadAnnotative
1000
AnnotativeData
1002
{
1070
     1
1070
     0
1002
}
1001
ACAD
1000
ACAD_MTEXT_DEFINED_HEIGHT_BEGIN
1070
    46
1040
7.119
1000
ACAD_MTEXT_DEFINED_HEIGHT_END
  0
VIEWPORT
  5
9DA
102
{ACAD_XDICTIONARY
360
9DB
102
}
330
9D7
100
AcDbEntity
 67
     1
  8
0
100
AcDbViewport
 10
0.0
 20
0.0
 30
0.0
 40
483.8200000000001
 41
302.9400000000001
 68
     1
 69
     1
 12
337.9534537159595
 22
148.4999999466577
 13
0.0
 23
0.0
 14
10.0
 24
10.0
 15
10.0
 25
10.0
 16
0.0
 26
0.0
 36
1.0
 17
0.0
 27
0.0
 37
0.0
 42
50.0
 43
0.0
 44
0.0
 45
302.9400000000001
 50
0.0
 51
0.0
 72
  1000
 90
   819248
  1

281
     0
 71
     1
 74
     0
110
0.0
120
0.0
130
0.0
111
1.0
121
0.0
131
0.0
112
0.0
122
1.0
132
0.0
 79
     0
146
0.0
170
     0
 61
     5
348
4FC
292
     1
282
     1
141
0.0
142
0.0
 63
   256
361
9DF
  0
LWPOLYLINE
  5
9E0
330
9D7
100
AcDbEntity
 67
     1
  8
GIP-Planrahmen
100
AcDbPolyline
 90
        4
 70
     1
 43
0.0
 10
232.9534537159595
 20
-0.000000053342319
 10
442.9534537159595
 20
-0.0000000533422622
 10
442.9534537159595
 20
296.9999999466577
 10
232.9534537159595
 20
296.9999999466577
  0
VIEWPORT
  5
9E4
102
{ACAD_XDICTIONARY
360
9E5
102
}
330
9D7
100
AcDbEntity
 67
     1
  8
GIP-Ansichtsfenster
 62
   253
 48
100.0
100
AcDbViewport
 10
337.9534537159595
 20
163.9841608550751
 30
0.0
 40
177.7533559377462
 41
236.0316781831651
 68
     2
 69
     2
 12
1593.042536824952
 22
878.1027674074076
 13
0.0
 23
0.0
 14
10.0
 24
10.0
 15
10.0
 25
10.0
 16
0.0
 26
0.0
 36
1.0
 17
6.123558314496677
 27
0.0
 37
0.0
 42
50.0
 43
0.0
 44
0.0
 45
693.7744485785463
 50
0.0
 51
0.0
 72
  1000
 90
   819280
  1

281
     0
 71
     1
 74
     0
110
0.0
120
0.0
130
0.0
111
1.0
121
0.0
131
0.0
112
0.0
122
1.0
132
0.0
 79
     0
146
0.0
170
     0
 61
     5
348
4FC
292
     1
282
     1
141
0.0
142
0.0
 63
   256
361
9EC
  0
LWPOLYLINE
  5
9ED
330
9D7
100
AcDbEntity
 67
     1
  8
0
100
AcDbPolyline
 90
        4
 70
     1
 43
0.0
 10
249.0767757470865
 20
45.9683217634926
 10
426.8301316848326
 20
45.9683217634926
 10
426.8301316848326
 20
14.99999994665774
 10
249.0767757470865
 20
14.99999994665774
  0
LWPOLYLINE
  5
9F7
330
9D7
100
AcDbEntity
 67
     1
  8
0
  6
Continuous
370
     0
100
AcDbPolyline
 90
        4
 70
     1
 43
0.0
 10
249.0767757470865
 20
45.9683217634926
 10
426.8301316848326
 20
45.9683217634926
 10
426.8301316848326
 20
281.9999999466577
 10
249.0767757470865
 20
281.9999999466577
  0
MTEXT
  5
AAC
102
{ACAD_XDICTIONARY
360
AAD
102
}
330
9D7
100
AcDbEntity
 67
     1
  8
RP_Beschriftung
100
AcDbMText
 10
252.2039263470452
 20
40.28598585224729
 30
0.0
 40
3.0
 41
30.97602534837966
 46
0.0
 71
     1
 72
     1
  1
\fArial|b0|i0;Detail 1-203
 73
     1
 44
1.0
1001
AcadAnnotative
1000
AnnotativeData
1002
{
1070
     1
1070
     0
1002
}
  0
MTEXT
  5
AB0
102
{ACAD_XDICTIONARY
360
AB1
102
}
330
9D7
100
AcDbEntity
 67
     1
  8
RP_Beschriftung
100
AcDbMText
 10
252.2039263470452
 20
32.12871781993517
 30
0.0
 40
2.5
 41
65.29623841115625
 46
6.709166666666667
 71
     1
 72
     1
  1
{\fArial|b0|i0|c0|p0;Raccord vertical avec bande\Pde ROCKPANEL}
 73
     1
 44
1.0
1001
AcadAnnotative
1000
AnnotativeData
1002
{
1070
     1
1070
     0
1002
}
1001
ACAD
1000
ACAD_MTEXT_DEFINED_HEIGHT_BEGIN
1070
    46
1040
6.709166666666667
1000
ACAD_MTEXT_DEFINED_HEIGHT_END
  0
IMAGE
  5
AE6
330
9D7
100
AcDbEntity
 67
     1
  8
0
  6
Continuous
370
     0
160
                 8
310
0800000000000000
100
AcDbRasterImage
 90
        0
 10
329.8542131316455
 20
14.99999994665774
 30
0.0
 11
0.07269559111933073
 21
0.0
 31
0.0
 12
0.0
 22
0.07269559111933074
 32
0.0
 13
1334.0
 23
426.0
340
AE1
 70
     3
280
     0
281
    50
282
    50
283
     0
360
AE7
 71
     1
 91
        2
 14
-0.5
 24
-0.5
 14
1333.5
 24
425.5
290
     0
  0
ENDSEC
  0
SECTION
  2
OBJECTS
  0
DICTIONARY
  5
C
330
0
100
AcDbDictionary
281
     1
  3
ACAD_COLOR
350
659
  3
ACAD_DETAILVIEWSTYLE
350
5BF
  3
ACAD_GROUP
350
D
  3
ACAD_IMAGE_DICT
350
5E0
  3
ACAD_IMAGE_VARS
350
5EB
  3
ACAD_LAYOUT
350
1A
  3
ACAD_MATERIAL
350
532
  3
ACAD_MLEADERSTYLE
350
538
  3
ACAD_MLINESTYLE
350
17
  3
ACAD_PLOTSETTINGS
350
19
  3
ACAD_PLOTSTYLENAME
350
E
  3
ACAD_SCALELIST
350
510
  3
ACAD_SECTIONVIEWSTYLE
350
5C0
  3
ACAD_TABLESTYLE
350
536
  3
ACAD_VISUALSTYLE
350
4F7
  3
ACDB_RECOMPOSE_DATA
350
AEA
  3
AcDbVariableDictionary
350
5B
  3
APPDATA
350
AB4
  0
SUN
  5
53B
330
4F6
100
AcDbSun
 90
        1
290
     0
 63
     7
421
 16777215
 40
1.0
291
     1
 91
  2455826
 92
 54000000
292
     0
 70
     2
 71
   256
280
     1
  0
DICTIONARY
  5
6C1
330
2
100
AcDbDictionary
280
     1
281
     1
  3
ACAD_LAYERSTATES
360
6C2
  0
DICTIONARY
  5
613
330
1F
100
AcDbDictionary
280
     1
281
     1
  3
ACAD_SORTENTS
360
614
  0
DICTIONARY
  5
9FB
330
9D7
100
AcDbDictionary
280
     1
281
     1
  3
ACAD_SORTENTS
360
9FC
  0
SUN
  5
5B8
330
5B7
100
AcDbSun
 90
        1
290
     0
 63
     7
421
 16777215
 40
1.0
291
     1
 91
  2455826
 92
 54000000
292
     0
 70
     2
 71
   256
280
     1
  0
SUN
  5
5BA
330
5B9
100
AcDbSun
 90
        1
290
     0
 63
     7
421
 16777215
 40
1.0
291
     1
 91
  2455826
 92
 54000000
292
     0
 70
     2
 71
   256
280
     1
  0
DICTIONARY
  5
70D
330
556
100
AcDbDictionary
280
     1
281
     1
  3
AcDbContextDataManager
360
70E
  0
DICTIONARY
  5
710
330
575
100
AcDbDictionary
280
     1
281
     1
  3
AcDbContextDataManager
360
711
  0
DICTIONARY
  5
618
330
586
100
AcDbDictionary
280
     1
281
     1
  3
AcDbContextDataManager
360
619
  0
DICTIONARY
  5
610
330
58E
100
AcDbDictionary
280
     1
281
     1
  3
AcDbContextDataManager
360
611
  0
DICTIONARY
  5
615
330
596
100
AcDbDictionary
280
     1
281
     1
  3
AcDbContextDataManager
360
616
  0
DICTIONARY
  5
714
330
713
100
AcDbDictionary
280
     1
281
     1
  3
AcDbContextDataManager
360
715
  0
DICTIONARY
  5
718
330
717
100
AcDbDictionary
280
     1
281
     1
  3
AcDbContextDataManager
360
719
  0
DICTIONARY
  5
80C
330
80B
100
AcDbDictionary
280
     1
281
     1
  3
AcDbContextDataManager
360
80D
  0
DICTIONARY
  5
811
330
810
100
AcDbDictionary
280
     1
281
     1
  3
AcDbContextDataManager
360
812
  0
DICTIONARY
  5
84A
330
849
100
AcDbDictionary
280
     1
281
     1
  3
AcDbContextDataManager
360
84B
  0
DICTIONARY
  5
883
330
882
100
AcDbDictionary
280
     1
281
     1
  3
AcDbContextDataManager
360
884
  0
DICTIONARY
  5
8BC
330
8BB
100
AcDbDictionary
280
     1
281
     1
  3
AcDbContextDataManager
360
8BD
  0
DICTIONARY
  5
8F5
330
8F4
100
AcDbDictionary
280
     1
281
     1
  3
AcDbContextDataManager
360
8F6
  0
DICTIONARY
  5
98B
330
98A
100
AcDbDictionary
280
     1
281
     1
  3
AcDbContextDataManager
360
98C
  0
DICTIONARY
  5
98F
330
98E
100
AcDbDictionary
280
     1
281
     1
  3
AcDbContextDataManager
360
990
  0
DICTIONARY
  5
993
330
992
100
AcDbDictionary
280
     1
281
     1
  3
AcDbContextDataManager
360
994
  0
DICTIONARY
  5
997
330
996
100
AcDbDictionary
280
     1
281
     1
  3
AcDbContextDataManager
360
998
  0
DICTIONARY
  5
9D0
330
9CF
100
AcDbDictionary
280
     1
281
     1
  3
AcDbContextDataManager
360
9D1
  0
DICTIONARY
  5
9DB
330
9DA
100
AcDbDictionary
280
     1
281
     1
  3
ASDK_XREC_ANNOTATION_SCALE_INFO
360
9DC
  0
SUN
  5
9DF
330
9DA
100
AcDbSun
 90
        1
290
     0
 63
     7
421
 16777215
 40
1.0
291
     1
 91
  2455826
 92
 54000000
292
     0
 70
     2
 71
   256
280
     1
  0
DICTIONARY
  5
9E5
330
9E4
100
AcDbDictionary
280
     1
281
     1
  3
ASDK_XREC_ANNOTATION_SCALE_INFO
360
9E6
  3
CPL_VPSCALE
360
9E8
  0
SUN
  5
9EC
330
9E4
100
AcDbSun
 90
        1
290
     0
 63
     7
421
 16777215
 40
1.0
291
     1
 91
  2455826
 92
 54000000
292
     0
 70
     2
 71
   256
280
     1
  0
DICTIONARY
  5
AAD
330
AAC
100
AcDbDictionary
280
     1
281
     1
  3
AcDbContextDataManager
360
AAE
  0
DICTIONARY
  5
AB1
330
AB0
100
AcDbDictionary
280
     1
281
     1
  3
AcDbContextDataManager
360
AB2
  0
IMAGEDEF_REACTOR
  5
AE7
330
AE6
100
AcDbRasterImageDefReactor
 90
        2
330
AE6
  0
DICTIONARY
  5
659
102
{ACAD_REACTORS
330
C
102
}
330
C
100
AcDbDictionary
281
     1
  0
DICTIONARY
  5
5BF
102
{ACAD_REACTORS
330
C
102
}
330
C
100
AcDbDictionary
281
     1
  0
DICTIONARY
  5
D
102
{ACAD_REACTORS
330
C
102
}
330
C
100
AcDbDictionary
281
     1
  0
DICTIONARY
  5
5E0
102
{ACAD_REACTORS
330
C
102
}
330
C
100
AcDbDictionary
281
     1
  3
Rockpanel
350
5DF
  3
Rockpanel logo
350
AE1
  0
RASTERVARIABLES
  5
5EB
102
{ACAD_REACTORS
330
C
102
}
330
C
100
AcDbRasterVariables
 90
        0
 70
     0
 71
     1
 72
     1
  0
DICTIONARY
  5
1A
102
{ACAD_REACTORS
330
C
102
}
330
C
100
AcDbDictionary
281
     1
  3
Layout1
350
1E
  3
Layout3-GIP A4_ENG
350
9D3
  3
Model
350
22
  0
DICTIONARY
  5
532
102
{ACAD_REACTORS
330
C
102
}
330
C
100
AcDbDictionary
281
     1
  3
ByBlock
350
534
  3
ByLayer
350
533
  3
Global
350
535
  0
DICTIONARY
  5
538
102
{ACAD_REACTORS
330
C
102
}
330
C
100
AcDbDictionary
281
     1
  3
Standard
350
539
  0
DICTIONARY
  5
17
102
{ACAD_REACTORS
330
C
102
}
330
C
100
AcDbDictionary
281
     1
  3
Standard
350
18
  0
DICTIONARY
  5
19
102
{ACAD_REACTORS
330
C
102
}
330
C
100
AcDbDictionary
281
     1
  0
ACDBDICTIONARYWDFLT
  5
E
102
{ACAD_REACTORS
330
C
102
}
330
C
100
AcDbDictionary
281
     1
  3
Normal
350
F
100
AcDbDictionaryWithDefault
340
F
  0
DICTIONARY
  5
510
102
{ACAD_REACTORS
330
C
102
}
330
C
100
AcDbDictionary
281
     1
  3
A0
350
511
  3
A1
350
512
  3
A2
350
513
  3
A3
350
514
  3
A4
350
515
  3
A5
350
516
  3
A6
350
517
  3
A7
350
518
  3
A8
350
519
  3
A9
350
51A
  3
B0
350
51B
  3
B1
350
51C
  3
B2
350
51D
  3
B3
350
51E
  3
B4
350
51F
  3
B5
350
520
  3
B6
350
521
  3
B7
350
522
  3
B8
350
523
  3
B9
350
524
  3
C0
350
525
  3
C1
350
526
  3
C2
350
527
  3
C3
350
528
  3
C4
350
529
  3
C5
350
52A
  3
C6
350
52B
  3
C7
350
52C
  3
C8
350
52D
  3
C9
350
52E
  3
D0
350
52F
  3
D1
350
530
  3
D2
350
531
  0
DICTIONARY
  5
5C0
102
{ACAD_REACTORS
330
C
102
}
330
C
100
AcDbDictionary
281
     1
  0
DICTIONARY
  5
536
102
{ACAD_REACTORS
330
C
102
}
330
C
100
AcDbDictionary
281
     1
  3
Standard
350
537
  0
DICTIONARY
  5
4F7
102
{ACAD_REACTORS
330
C
102
}
330
C
100
AcDbDictionary
281
     1
  3
2dWireframe
350
4FC
  3
Basic
350
4FF
  3
Brighten
350
503
  3
ColorChange
350
507
  3
Conceptual
350
501
  3
Dim
350
502
  3
EdgeColorOff
350
50A
  3
Facepattern
350
506
  3
Flat
350
4F8
  3
FlatWithEdges
350
4F9
  3
Gouraud
350
4FA
  3
GouraudWithEdges
350
4FB
  3
Hidden
350
4FE
  3
JitterOff
350
508
  3
Linepattern
350
505
  3
Modeling
350
53A
  3
OverhangOff
350
509
  3
Realistic
350
500
  3
Shaded
350
50F
  3
Shaded with edges
350
50E
  3
Shades of Gray
350
50B
  3
Sketchy
350
50C
  3
Thicken
350
504
  3
Wireframe
350
4FD
  3
X-Ray
350
50D
  0
XRECORD
  5
AEA
102
{ACAD_REACTORS
330
C
102
}
330
C
100
AcDbXrecord
280
     1
 90
        1
330
537
  0
DICTIONARY
  5
5B
102
{ACAD_REACTORS
330
C
102
}
330
C
100
AcDbDictionary
281
     1
  3
CANNOSCALE
350
5BB
  3
CMLEADERSTYLE
350
5BD
  3
CTABLESTYLE
350
5BC
  3
DIMASSOC
350
5D
  3
HIDETEXT
350
5C
  3
HPLAYER
350
71B
  3
MSLTSCALE
350
5BE
  0
DICTIONARY
  5
AB4
102
{ACAD_REACTORS
330
C
102
}
330
C
100
AcDbDictionary
281
     1
  0
DICTIONARY
  5
6C2
102
{ACAD_REACTORS
330
6C1
102
}
330
6C1
100
AcDbDictionary
281
     1
  0
SORTENTSTABLE
  5
614
102
{ACAD_REACTORS
330
613
102
}
330
613
100
AcDbSortentsTable
330
1F
331
0
  5
54E
331
542
  5
54C
331
543
  5
54D
331
549
  5
5AE
331
54A
  5
5AF
331
54B
  5
5B3
331
54C
  5
553
331
551
  5
5AB
331
552
  5
5AC
331
553
  5
5AD
331
555
  5
580
331
556
  5
582
331
557
  5
559
331
558
  5
584
331
559
  5
55A
331
55A
  5
55B
331
55B
  5
55C
331
55C
  5
7D7
331
55E
  5
80B
331
55F
  5
55E
331
560
  5
55F
331
561
  5
564
331
562
  5
566
331
563
  5
567
331
56A
  5
569
331
56B
  5
70C
331
56C
  5
70A
331
56D
  5
70B
331
56E
  5
56A
331
56F
  5
56B
331
570
  5
56D
331
571
  5
56E
331
572
  5
56F
331
574
  5
588
331
575
  5
589
331
576
  5
570
331
577
  5
58B
331
578
  5
571
331
579
  5
572
331
57A
  5
5B4
331
57B
  5
5B5
331
57C
  5
573
331
57D
  5
5B6
331
57E
  5
574
331
57F
  5
575
331
580
  5
576
331
581
  5
577
331
582
  5
579
331
583
  5
57A
331
584
  5
57B
331
586
  5
4F4
331
587
  5
57C
331
588
  5
4F5
331
58B
  5
57D
331
58C
  5
4F3
331
58E
  5
54A
331
58F
  5
585
331
590
  5
54B
331
593
  5
586
331
594
  5
4F1
331
596
  5
548
331
597
  5
5AA
331
598
  5
549
331
6C5
  5
61B
331
6C6
  5
61C
331
6C7
  5
64B
331
6C8
  5
6C5
331
6C9
  5
6C6
331
6CA
  5
6C7
331
6CB
  5
6C8
331
6CC
  5
6C9
331
6CD
  5
6CA
331
6CE
  5
6CB
331
6CF
  5
6CC
331
6D0
  5
6CD
331
6D1
  5
6CE
331
6D2
  5
6CF
331
6D3
  5
6D0
331
6D4
  5
6D1
331
6D5
  5
6D2
331
6D6
  5
6D3
331
6D7
  5
6D4
331
6D8
  5
6D5
331
6D9
  5
6D6
331
6DA
  5
6D7
331
6DB
  5
6D8
331
6DC
  5
6D9
331
6DD
  5
6DA
331
6DE
  5
6DB
331
6DF
  5
6DC
331
6E0
  5
6DD
331
6E1
  5
6DE
331
6E2
  5
6DF
331
6E3
  5
6E0
331
6E4
  5
6E1
331
6E5
  5
6E2
331
6E6
  5
6E3
331
6E7
  5
6E4
331
6E8
  5
6E5
331
6E9
  5
6E6
331
6EA
  5
6E7
331
6F4
  5
6F1
331
6F7
  5
6F4
331
6F8
  5
6F5
331
6F9
  5
6F6
331
6FA
  5
6F7
331
6FF
  5
6FC
331
703
  5
700
331
704
  5
701
331
705
  5
702
331
707
  5
704
331
708
  5
705
331
709
  5
706
331
70C
  5
709
331
713
  5
4F2
331
717
  5
4F0
331
80B
  5
7A8
  0
SORTENTSTABLE
  5
9FC
102
{ACAD_REACTORS
330
9FB
102
}
330
9FB
100
AcDbSortentsTable
330
9D7
331
0
  5
AE6
331
9DA
  5
9E4
331
9E0
  5
9EE
331
9E4
  5
9F1
331
9ED
  5
AAC
331
9F7
  5
9ED
331
AAC
  5
AB0
331
AB0
  5
AE5
331
AE6
  5
9DA
  0
DICTIONARY
  5
70E
102
{ACAD_REACTORS
330
70D
102
}
330
70D
100
AcDbDictionary
281
     1
  3
ACDB_ANNOTATIONSCALES
350
70F
  0
DICTIONARY
  5
711
102
{ACAD_REACTORS
330
710
102
}
330
710
100
AcDbDictionary
281
     1
  3
ACDB_ANNOTATIONSCALES
350
712
  0
DICTIONARY
  5
619
102
{ACAD_REACTORS
330
618
102
}
330
618
100
AcDbDictionary
281
     1
  3
ACDB_ANNOTATIONSCALES
350
61A
  0
DICTIONARY
  5
611
102
{ACAD_REACTORS
330
610
102
}
330
610
100
AcDbDictionary
281
     1
  3
ACDB_ANNOTATIONSCALES
350
612
  0
DICTIONARY
  5
616
102
{ACAD_REACTORS
330
615
102
}
330
615
100
AcDbDictionary
281
     1
  3
ACDB_ANNOTATIONSCALES
350
617
  0
DICTIONARY
  5
715
102
{ACAD_REACTORS
330
714
102
}
330
714
100
AcDbDictionary
281
     1
  3
ACDB_ANNOTATIONSCALES
350
716
  0
DICTIONARY
  5
719
102
{ACAD_REACTORS
330
718
102
}
330
718
100
AcDbDictionary
281
     1
  3
ACDB_ANNOTATIONSCALES
350
71A
  0
DICTIONARY
  5
80D
102
{ACAD_REACTORS
330
80C
102
}
330
80C
100
AcDbDictionary
281
     1
  3
ACDB_ANNOTATIONSCALES
350
80E
  0
DICTIONARY
  5
812
102
{ACAD_REACTORS
330
811
102
}
330
811
100
AcDbDictionary
281
     1
  3
ACDB_ANNOTATIONSCALES
350
813
  0
DICTIONARY
  5
84B
102
{ACAD_REACTORS
330
84A
102
}
330
84A
100
AcDbDictionary
281
     1
  3
ACDB_ANNOTATIONSCALES
350
84C
  0
DICTIONARY
  5
884
102
{ACAD_REACTORS
330
883
102
}
330
883
100
AcDbDictionary
281
     1
  3
ACDB_ANNOTATIONSCALES
350
885
  0
DICTIONARY
  5
8BD
102
{ACAD_REACTORS
330
8BC
102
}
330
8BC
100
AcDbDictionary
281
     1
  3
ACDB_ANNOTATIONSCALES
350
8BE
  0
DICTIONARY
  5
8F6
102
{ACAD_REACTORS
330
8F5
102
}
330
8F5
100
AcDbDictionary
281
     1
  3
ACDB_ANNOTATIONSCALES
350
8F7
  0
DICTIONARY
  5
98C
102
{ACAD_REACTORS
330
98B
102
}
330
98B
100
AcDbDictionary
281
     1
  3
ACDB_ANNOTATIONSCALES
350
98D
  0
DICTIONARY
  5
990
102
{ACAD_REACTORS
330
98F
102
}
330
98F
100
AcDbDictionary
281
     1
  3
ACDB_ANNOTATIONSCALES
350
991
  0
DICTIONARY
  5
994
102
{ACAD_REACTORS
330
993
102
}
330
993
100
AcDbDictionary
281
     1
  3
ACDB_ANNOTATIONSCALES
350
995
  0
DICTIONARY
  5
998
102
{ACAD_REACTORS
330
997
102
}
330
997
100
AcDbDictionary
281
     1
  3
ACDB_ANNOTATIONSCALES
350
999
  0
DICTIONARY
  5
9D1
102
{ACAD_REACTORS
330
9D0
102
}
330
9D0
100
AcDbDictionary
281
     1
  3
ACDB_ANNOTATIONSCALES
350
9D2
  0
XRECORD
  5
9DC
102
{ACAD_REACTORS
330
9DB
102
}
330
9DB
100
AcDbXrecord
280
     1
 90
        1
340
511
  0
XRECORD
  5
9E6
102
{ACAD_REACTORS
330
9E5
102
}
330
9E5
100
AcDbXrecord
280
     1
 90
        1
340
513
  0
XRECORD
  5
9E8
102
{ACAD_REACTORS
330
9E5
102
}
330
9E5
100
AcDbXrecord
280
     1
 40
0.0
  0
DICTIONARY
  5
AAE
102
{ACAD_REACTORS
330
AAD
102
}
330
AAD
100
AcDbDictionary
281
     1
  3
ACDB_ANNOTATIONSCALES
350
AAF
  0
DICTIONARY
  5
AB2
102
{ACAD_REACTORS
330
AB1
102
}
330
AB1
100
AcDbDictionary
281
     1
  3
ACDB_ANNOTATIONSCALES
350
AB3
  0
IMAGEDEF
  5
5DF
102
{ACAD_REACTORS
330
5E0
102
}
330
5E0
100
AcDbRasterImageDef
 90
        0
  1
C:\Users\waldmann\Pictures\Rockpanel.png
 10
1334.0
 20
426.0
 11
0.3527777777777777
 21
0.3527777777777777
280
     1
281
     5
  0
IMAGEDEF
  5
AE1
102
{ACAD_REACTORS
330
5E0
330
AE7
102
}
330
5E0
100
AcDbRasterImageDef
 90
        0
  1
P:/controle documentatie/website/Details GIP/1.17.2017/Rockpanel logo.png
 10
1334.0
 20
426.0
 11
0.3527336860670194
 21
0.3527336860670194
280
     1
281
     3
  0
LAYOUT
  5
1E
102
{ACAD_REACTORS
330
1A
102
}
330
1A
100
AcDbPlotSettings
  1

  2
none_device
  4
ISO_A4_(210.00_x_297.00_MM)
  6

 40
7.5
 41
20.0
 42
7.5
 43
20.0
 44
210.0
 45
297.0
 46
0.0
 47
0.0
 48
0.0
 49
0.0
140
0.0
141
0.0
142
1.0
143
1.0
 70
   688
 72
     1
 73
     1
 74
     5
  7
Default R14 pen assignments.ctb
 75
    16
 76
     0
 77
     2
 78
   300
147
1.0
148
0.0
149
0.0
100
AcDbLayout
  1
Layout1
 70
     1
 71
     1
 10
-20.0
 20
-7.5
 11
277.0
 21
202.5
 12
0.0
 22
0.0
 32
0.0
 14
25.69999999999999
 24
19.5
 34
0.0
 15
231.3
 25
175.5
 35
0.0
146
0.0
 13
0.0
 23
0.0
 33
0.0
 16
1.0
 26
0.0
 36
0.0
 17
0.0
 27
1.0
 37
0.0
 76
     0
330
1B
331
5B7
  0
LAYOUT
  5
9D3
102
{ACAD_REACTORS
330
1A
102
}
330
1A
100
AcDbPlotSettings
  1

  2
PDF24 PDF
  4
A4
  6

 40
0.0
 41
0.0423333333333333
 42
0.0
 43
0.0
 44
210.0
 45
297.0
 46
0.0149663299663132
 47
-0.0000000000000138
 48
232.9534537159595
 49
-0.0000000533422622
140
442.9534537159595
141
296.9999999466577
142
1.0
143
1.000142556795413
 70
   758
 72
     1
 73
     0
 74
     4
  7
displaycolors-darkbg.ctb
 75
     0
 76
     0
 77
     2
 78
   300
147
0.9998574635241305
148
-232.9534537159595
149
0.0000000533422622
100
AcDbLayout
  1
Layout3-GIP A4_ENG
 70
     1
 71
     2
 10
323.5445291550247
 20
-21.18376289401897
 11
743.7028543503372
 21
275.8692461391842
 12
0.0
 22
0.0
 32
0.0
 14
232.9534537159595
 24
-0.000000053342319
 34
0.0
 15
442.9534537159595
 25
296.9999999466577
 35
0.0
146
0.0
 13
0.0
 23
0.0
 33
0.0
 16
1.0
 26
0.0
 36
0.0
 17
0.0
 27
1.0
 37
0.0
 76
     0
330
9D7
331
9DA
1001
ACAD_PSEXT
1000
PDFCreator
1000
PDFCreator
1000
pdfcmon
1000
eDoc Printer
1070
     0
1001
AcadAnnoAV
1070
     1
1001
PLOTTRANSPARENCY
1071
        1
  0
LAYOUT
  5
22
102
{ACAD_REACTORS
330
1A
102
}
330
1A
100
AcDbPlotSettings
  1

  2
\\AUTO\HP LaserJet 5 Programmeurs
  4

  6

 40
0.0
 41
0.0
 42
0.0
 43
0.0
 44
0.0
 45
0.0
 46
0.0
 47
0.0
 48
0.0
 49
0.0
140
0.0
141
0.0
142
1.0
143
1.0
 70
  1712
 72
     0
 73
     0
 74
     0
  7
Default R14 pen assignments.ctb
 75
     0
 76
     0
 77
     2
 78
   300
147
1.0
148
0.0
149
0.0
100
AcDbLayout
  1
Model
 70
     1
 71
     0
 10
0.0
 20
0.0
 11
12.0
 21
9.0
 12
0.0
 22
0.0
 32
0.0
 14
1343.050721617349
 24
629.1027674074076
 34
0.0
 15
1855.281468661548
 25
1127.102767407408
 35
0.0
146
0.0
 13
0.0
 23
0.0
 33
0.0
 16
1.0
 26
0.0
 36
0.0
 17
0.0
 27
1.0
 37
0.0
 76
     0
330
1F
331
4F6
  0
MATERIAL
  5
534
102
{ACAD_REACTORS
330
532
102
}
330
532
100
AcDbMaterial
  1
ByBlock
 72
     1
 94
      127
  0
MATERIAL
  5
533
102
{ACAD_REACTORS
330
532
102
}
330
532
100
AcDbMaterial
  1
ByLayer
 72
     1
 94
      127
  0
MATERIAL
  5
535
102
{ACAD_REACTORS
330
532
102
}
330
532
100
AcDbMaterial
  1
Global
 72
     1
 94
      127
  0
MLEADERSTYLE
  5
539
102
{ACAD_REACTORS
330
538
102
}
330
538
100
AcDbMLeaderStyle
179
     2
170
     2
171
     1
172
     0
 90
        2
 40
0.0
 41
0.0
173
     1
 91
-1056964608
340
14
 92
       -2
290
     1
 42
2.0
291
     1
 43
8.0
  3
Standard
341
0
 44
4.0
300

342
11
174
     1
178
     6
175
     1
176
     0
 93
-1056964608
 45
4.0
292
     0
297
     0
 46
4.0
343
0
 94
-1056964608
 47
1.0
 49
1.0
140
1.0
293
     1
141
0.0
294
     1
177
     0
142
1.0
295
     0
296
     0
143
3.75
271
     0
272
     9
273
     9
  0
MLINESTYLE
  5
18
102
{ACAD_REACTORS
330
17
102
}
330
17
100
AcDbMlineStyle
  2
STANDARD
 70
     0
  3

 62
   256
 51
90.0
 52
90.0
 71
     2
 49
0.5
 62
   256
  6
BYLAYER
 49
-0.5
 62
   256
  6
BYLAYER
  0
ACDBPLACEHOLDER
  5
F
102
{ACAD_REACTORS
330
E
102
}
330
E
  0
SCALE
  5
511
102
{ACAD_REACTORS
330
510
102
}
330
510
100
AcDbScale
 70
     0
300
1:1
140
1.0
141
1.0
290
     1
  0
SCALE
  5
512
102
{ACAD_REACTORS
330
510
102
}
330
510
100
AcDbScale
 70
     0
300
1:2
140
1.0
141
2.0
290
     0
  0
SCALE
  5
513
102
{ACAD_REACTORS
330
510
102
}
330
510
100
AcDbScale
 70
     0
300
1:4
140
1.0
141
4.0
290
     0
  0
SCALE
  5
514
102
{ACAD_REACTORS
330
510
102
}
330
510
100
AcDbScale
 70
     0
300
1:5
140
1.0
141
5.0
290
     0
  0
SCALE
  5
515
102
{ACAD_REACTORS
330
510
102
}
330
510
100
AcDbScale
 70
     0
300
1:8
140
1.0
141
8.0
290
     0
  0
SCALE
  5
516
102
{ACAD_REACTORS
330
510
102
}
330
510
100
AcDbScale
 70
     0
300
1:10
140
1.0
141
10.0
290
     0
  0
SCALE
  5
517
102
{ACAD_REACTORS
330
510
102
}
330
510
100
AcDbScale
 70
     0
300
1:16
140
1.0
141
16.0
290
     0
  0
SCALE
  5
518
102
{ACAD_REACTORS
330
510
102
}
330
510
100
AcDbScale
 70
     0
300
1:20
140
1.0
141
20.0
290
     0
  0
SCALE
  5
519
102
{ACAD_REACTORS
330
510
102
}
330
510
100
AcDbScale
 70
     0
300
1:30
140
1.0
141
30.0
290
     0
  0
SCALE
  5
51A
102
{ACAD_REACTORS
330
510
102
}
330
510
100
AcDbScale
 70
     0
300
1:40
140
1.0
141
40.0
290
     0
  0
SCALE
  5
51B
102
{ACAD_REACTORS
330
510
102
}
330
510
100
AcDbScale
 70
     0
300
1:50
140
1.0
141
50.0
290
     0
  0
SCALE
  5
51C
102
{ACAD_REACTORS
330
510
102
}
330
510
100
AcDbScale
 70
     0
300
1:100
140
1.0
141
100.0
290
     0
  0
SCALE
  5
51D
102
{ACAD_REACTORS
330
510
102
}
330
510
100
AcDbScale
 70
     0
300
2:1
140
2.0
141
1.0
290
     0
  0
SCALE
  5
51E
102
{ACAD_REACTORS
330
510
102
}
330
510
100
AcDbScale
 70
     0
300
4:1
140
4.0
141
1.0
290
     0
  0
SCALE
  5
51F
102
{ACAD_REACTORS
330
510
102
}
330
510
100
AcDbScale
 70
     0
300
8:1
140
8.0
141
1.0
290
     0
  0
SCALE
  5
520
102
{ACAD_REACTORS
330
510
102
}
330
510
100
AcDbScale
 70
     0
300
10:1
140
10.0
141
1.0
290
     0
  0
SCALE
  5
521
102
{ACAD_REACTORS
330
510
102
}
330
510
100
AcDbScale
 70
     0
300
100:1
140
100.0
141
1.0
290
     0
  0
SCALE
  5
522
102
{ACAD_REACTORS
330
510
102
}
330
510
100
AcDbScale
 70
     0
300
1/128" = 1'-0"
140
0.0078125
141
12.0
290
     0
  0
SCALE
  5
523
102
{ACAD_REACTORS
330
510
102
}
330
510
100
AcDbScale
 70
     0
300
1/64" = 1'-0"
140
0.015625
141
12.0
290
     0
  0
SCALE
  5
524
102
{ACAD_REACTORS
330
510
102
}
330
510
100
AcDbScale
 70
     0
300
1/32" = 1'-0"
140
0.03125
141
12.0
290
     0
  0
SCALE
  5
525
102
{ACAD_REACTORS
330
510
102
}
330
510
100
AcDbScale
 70
     0
300
1/16" = 1'-0"
140
0.0625
141
12.0
290
     0
  0
SCALE
  5
526
102
{ACAD_REACTORS
330
510
102
}
330
510
100
AcDbScale
 70
     0
300
3/32" = 1'-0"
140
0.09375
141
12.0
290
     0
  0
SCALE
  5
527
102
{ACAD_REACTORS
330
510
102
}
330
510
100
AcDbScale
 70
     0
300
1/8" = 1'-0"
140
0.125
141
12.0
290
     0
  0
SCALE
  5
528
102
{ACAD_REACTORS
330
510
102
}
330
510
100
AcDbScale
 70
     0
300
3/16" = 1'-0"
140
0.1875
141
12.0
290
     0
  0
SCALE
  5
529
102
{ACAD_REACTORS
330
510
102
}
330
510
100
AcDbScale
 70
     0
300
1/4" = 1'-0"
140
0.25
141
12.0
290
     0
  0
SCALE
  5
52A
102
{ACAD_REACTORS
330
510
102
}
330
510
100
AcDbScale
 70
     0
300
3/8" = 1'-0"
140
0.375
141
12.0
290
     0
  0
SCALE
  5
52B
102
{ACAD_REACTORS
330
510
102
}
330
510
100
AcDbScale
 70
     0
300
1/2" = 1'-0"
140
0.5
141
12.0
290
     0
  0
SCALE
  5
52C
102
{ACAD_REACTORS
330
510
102
}
330
510
100
AcDbScale
 70
     0
300
3/4" = 1'-0"
140
0.75
141
12.0
290
     0
  0
SCALE
  5
52D
102
{ACAD_REACTORS
330
510
102
}
330
510
100
AcDbScale
 70
     0
300
1" = 1'-0"
140
1.0
141
12.0
290
     0
  0
SCALE
  5
52E
102
{ACAD_REACTORS
330
510
102
}
330
510
100
AcDbScale
 70
     0
300
1-1/2" = 1'-0"
140
1.5
141
12.0
290
     0
  0
SCALE
  5
52F
102
{ACAD_REACTORS
330
510
102
}
330
510
100
AcDbScale
 70
     0
300
3" = 1'-0"
140
3.0
141
12.0
290
     0
  0
SCALE
  5
530
102
{ACAD_REACTORS
330
510
102
}
330
510
100
AcDbScale
 70
     0
300
6" = 1'-0"
140
6.0
141
12.0
290
     0
  0
SCALE
  5
531
102
{ACAD_REACTORS
330
510
102
}
330
510
100
AcDbScale
 70
     0
300
1'-0" = 1'-0"
140
12.0
141
12.0
290
     0
  0
TABLESTYLE
  5
537
102
{ACAD_REACTORS
330
536
102
}
102
{ACAD_XDICTIONARY
360
AE8
102
}
330
536
100
AcDbTableStyle
  3
Standard
 70
     0
 71
     0
 40
1.5
 41
1.5
280
     0
281
     0
  7
Standard
140
4.5
170
     2
 62
     0
 63
   257
283
     0
 90
        4
 91
        0
  1

274
    -2
284
     1
 64
     0
275
    -2
285
     1
 65
     0
276
    -2
286
     1
 66
     0
277
    -2
287
     1
 67
     0
278
    -2
288
     1
 68
     0
279
    -2
289
     1
 69
     0
  7
Standard
140
6.0
170
     5
 62
     0
 63
   257
283
     0
 90
        4
 91
        0
  1

274
    -2
284
     1
 64
     0
275
    -2
285
     1
 65
     0
276
    -2
286
     1
 66
     0
277
    -2
287
     1
 67
     0
278
    -2
288
     1
 68
     0
279
    -2
289
     1
 69
     0
  7
Standard
140
4.5
170
     5
 62
     0
 63
   257
283
     0
 90
        4
 91
        0
  1

274
    -2
284
     1
 64
     0
275
    -2
285
     1
 65
     0
276
    -2
286
     1
 66
     0
277
    -2
287
     1
 67
     0
278
    -2
288
     1
 68
     0
279
    -2
289
     1
 69
     0
  0
VISUALSTYLE
  5
4FC
102
{ACAD_REACTORS
330
4F7
102
}
330
4F7
100
AcDbVisualStyle
  2
2dWireframe
 70
     4
177
     2
291
     0
 71
     0
176
     1
 72
     2
176
     1
 73
     0
176
     1
 90
        0
176
     1
 40
0.6
176
     1
 41
30.0
176
     1
 62
     5
 63
     7
421
 16777215
176
     1
 74
     1
176
     1
 91
        4
176
     1
 64
     7
176
     1
 65
   257
176
     1
 75
     1
176
     1
175
     1
176
     1
 42
1.0
176
     1
 92
        0
176
     1
 66
   257
176
     1
 43
1.0
176
     1
 76
     1
176
     1
 77
     6
176
     1
 78
     2
176
     1
 67
     7
176
     1
 79
     5
176
     1
170
     0
176
     1
171
     0
176
     1
290
     0
176
     1
 93
        1
176
     1
 44
0.0
176
     1
173
     0
176
     1
  0
VISUALSTYLE
  5
4FF
102
{ACAD_REACTORS
330
4F7
102
}
330
4F7
100
AcDbVisualStyle
  2
Basic
 70
     7
177
     2
291
     1
 71
     1
176
     1
 72
     0
176
     1
 73
     1
176
     1
 90
        0
176
     1
 40
0.6
176
     1
 41
30.0
176
     1
 62
     5
 63
     7
421
 16777215
176
     1
 74
     0
176
     1
 91
        4
176
     1
 64
     7
176
     1
 65
   257
176
     1
 75
     1
176
     1
175
     1
176
     1
 42
1.0
176
     1
 92
        8
176
     1
 66
     7
176
     1
 43
1.0
176
     1
 76
     1
176
     1
 77
     6
176
     1
 78
     2
176
     1
 67
     7
176
     1
 79
     5
176
     1
170
     0
176
     1
171
     0
176
     1
290
     0
176
     1
 93
        1
176
     1
 44
0.0
176
     1
173
     0
176
     1
  0
VISUALSTYLE
  5
503
102
{ACAD_REACTORS
330
4F7
102
}
330
4F7
100
AcDbVisualStyle
  2
Brighten
 70
    12
177
     2
291
     1
 71
     2
176
     1
 72
     2
176
     1
 73
     0
176
     1
 90
        0
176
     1
 40
0.6
176
     1
 41
30.0
176
     1
 62
     5
 63
     7
421
 16777215
176
     1
 74
     1
176
     1
 91
        4
176
     1
 64
     7
176
     1
 65
   257
176
     1
 75
     1
176
     1
175
     1
176
     1
 42
1.0
176
     1
 92
        8
176
     1
 66
     7
176
     1
 43
1.0
176
     1
 76
     1
176
     1
 77
     6
176
     1
 78
     2
176
     1
 67
     7
176
     1
 79
     5
176
     1
170
     0
176
     1
171
     0
176
     1
290
     0
176
     1
 93
        1
176
     1
 44
50.0
176
     1
173
     0
176
     1
  0
VISUALSTYLE
  5
507
102
{ACAD_REACTORS
330
4F7
102
}
330
4F7
100
AcDbVisualStyle
  2
ColorChange
 70
    16
177
     2
291
     1
 71
     2
176
     1
 72
     2
176
     1
 73
     3
176
     1
 90
        0
176
     1
 40
0.6
176
     1
 41
30.0
176
     1
 62
     5
 63
     8
421
  8421504
176
     1
 74
     1
176
     1
 91
        4
176
     1
 64
     7
176
     1
 65
   257
176
     1
 75
     1
176
     1
175
     1
176
     1
 42
1.0
176
     1
 92
        8
176
     1
 66
     8
424
  8421504
176
     1
 43
1.0
176
     1
 76
     1
176
     1
 77
     6
176
     1
 78
     2
176
     1
 67
     7
176
     1
 79
     5
176
     1
170
     0
176
     1
171
     0
176
     1
290
     0
176
     1
 93
        1
176
     1
 44
0.0
176
     1
173
     0
176
     1
  0
VISUALSTYLE
  5
501
102
{ACAD_REACTORS
330
4F7
102
}
330
4F7
100
AcDbVisualStyle
  2
Conceptual
 70
     9
177
     2
291
     0
 71
     3
176
     1
 72
     2
176
     1
 73
     0
176
     1
 90
        0
176
     1
 40
0.6
176
     1
 41
30.0
176
     1
 62
     5
 63
     7
421
 16777215
176
     1
 74
     2
176
     1
 91
        2
176
     1
 64
     7
176
     1
 65
   257
176
     1
 75
     1
176
     1
175
     1
176
     1
 42
179.0
176
     1
 92
        8
176
     1
 66
     7
176
     1
 43
1.0
176
     1
 76
     1
176
     1
 77
     6
176
     1
 78
     2
176
     1
 67
     7
176
     1
 79
     3
176
     1
170
     0
176
     1
171
     0
176
     1
290
     0
176
     1
 93
        1
176
     1
 44
0.0
176
     1
173
     0
176
     1
  0
VISUALSTYLE
  5
502
102
{ACAD_REACTORS
330
4F7
102
}
330
4F7
100
AcDbVisualStyle
  2
Dim
 70
    11
177
     2
291
     1
 71
     2
176
     1
 72
     2
176
     1
 73
     0
176
     1
 90
        0
176
     1
 40
0.6
176
     1
 41
30.0
176
     1
 62
     5
 63
     7
421
 16777215
176
     1
 74
     1
176
     1
 91
        4
176
     1
 64
     7
176
     1
 65
   257
176
     1
 75
     1
176
     1
175
     1
176
     1
 42
1.0
176
     1
 92
        8
176
     1
 66
     7
176
     1
 43
1.0
176
     1
 76
     1
176
     1
 77
     6
176
     1
 78
     2
176
     1
 67
     7
176
     1
 79
     5
176
     1
170
     0
176
     1
171
     0
176
     1
290
     0
176
     1
 93
        1
176
     1
 44
-50.0
176
     1
173
     0
176
     1
  0
VISUALSTYLE
  5
50A
102
{ACAD_REACTORS
330
4F7
102
}
330
4F7
100
AcDbVisualStyle
  2
EdgeColorOff
 70
    22
177
     2
291
     1
 71
     2
176
     0
 72
     2
176
     0
 73
     0
176
     0
 90
        0
176
     0
 40
0.6
176
     0
 41
30.0
176
     0
 62
     5
 63
     7
421
 16777215
176
     0
 74
     1
176
     0
 91
        4
176
     0
 64
     7
176
     0
 65
   257
176
     0
 75
     1
176
     0
175
     1
176
     0
 42
1.0
176
     0
 92
        8
176
     2
 66
     7
176
     0
 43
1.0
176
     0
 76
     1
176
     0
 77
     6
176
     0
 78
     2
176
     0
 67
     7
176
     0
 79
     5
176
     0
170
     0
176
     0
171
     0
176
     0
290
     0
176
     0
 93
        1
176
     0
 44
0.0
176
     0
173
     0
176
     0
  0
VISUALSTYLE
  5
506
102
{ACAD_REACTORS
330
4F7
102
}
330
4F7
100
AcDbVisualStyle
  2
Facepattern
 70
    15
177
     2
291
     1
 71
     2
176
     1
 72
     2
176
     1
 73
     0
176
     1
 90
        0
176
     1
 40
0.6
176
     1
 41
30.0
176
     1
 62
     5
 63
     7
421
 16777215
176
     1
 74
     1
176
     1
 91
        4
176
     1
 64
     7
176
     1
 65
   257
176
     1
 75
     1
176
     1
175
     1
176
     1
 42
1.0
176
     1
 92
        8
176
     1
 66
     7
176
     1
 43
1.0
176
     1
 76
     1
176
     1
 77
     6
176
     1
 78
     2
176
     1
 67
     7
176
     1
 79
     5
176
     1
170
     0
176
     1
171
     0
176
     1
290
     0
176
     1
 93
        1
176
     1
 44
0.0
176
     1
173
     0
176
     1
  0
VISUALSTYLE
  5
4F8
102
{ACAD_REACTORS
330
4F7
102
}
330
4F7
100
AcDbVisualStyle
  2
Flat
 70
     0
177
     2
291
     1
 71
     2
176
     1
 72
     1
176
     1
 73
     1
176
     1
 90
        2
176
     1
 40
0.6
176
     1
 41
30.0
176
     1
 62
     5
 63
     7
421
 16777215
176
     1
 74
     0
176
     1
 91
        0
176
     1
 64
     7
176
     1
 65
   257
176
     1
 75
     1
176
     1
175
     1
176
     1
 42
1.0
176
     1
 92
        8
176
     1
 66
     7
176
     1
 43
1.0
176
     1
 76
     1
176
     1
 77
     6
176
     1
 78
     2
176
     1
 67
     7
176
     1
 79
     5
176
     1
170
     0
176
     1
171
     0
176
     1
290
     0
176
     1
 93
       13
176
     1
 44
0.0
176
     1
173
     0
176
     1
  0
VISUALSTYLE
  5
4F9
102
{ACAD_REACTORS
330
4F7
102
}
330
4F7
100
AcDbVisualStyle
  2
FlatWithEdges
 70
     1
177
     2
291
     1
 71
     2
176
     1
 72
     1
176
     1
 73
     1
176
     1
 90
        2
176
     1
 40
0.6
176
     1
 41
30.0
176
     1
 62
     5
 63
     7
421
 16777215
176
     1
 74
     1
176
     1
 91
        0
176
     1
 64
     7
176
     1
 65
   257
176
     1
 75
     1
176
     1
175
     1
176
     1
 42
1.0
176
     1
 92
        0
176
     1
 66
   257
176
     1
 43
1.0
176
     1
 76
     1
176
     1
 77
     6
176
     1
 78
     2
176
     1
 67
     7
176
     1
 79
     5
176
     1
170
     0
176
     1
171
     0
176
     1
290
     0
176
     1
 93
       13
176
     1
 44
0.0
176
     1
173
     0
176
     1
  0
VISUALSTYLE
  5
4FA
102
{ACAD_REACTORS
330
4F7
102
}
330
4F7
100
AcDbVisualStyle
  2
Gouraud
 70
     2
177
     2
291
     1
 71
     2
176
     1
 72
     2
176
     1
 73
     1
176
     1
 90
        2
176
     1
 40
0.6
176
     1
 41
30.0
176
     1
 62
     5
 63
     7
421
 16777215
176
     1
 74
     0
176
     1
 91
        0
176
     1
 64
     7
176
     1
 65
   257
176
     1
 75
     1
176
     1
175
     1
176
     1
 42
1.0
176
     1
 92
        0
176
     1
 66
     7
176
     1
 43
1.0
176
     1
 76
     1
176
     1
 77
     6
176
     1
 78
     2
176
     1
 67
     7
176
     1
 79
     5
176
     1
170
     0
176
     1
171
     0
176
     1
290
     0
176
     1
 93
       13
176
     1
 44
0.0
176
     1
173
     0
176
     1
  0
VISUALSTYLE
  5
4FB
102
{ACAD_REACTORS
330
4F7
102
}
330
4F7
100
AcDbVisualStyle
  2
GouraudWithEdges
 70
     3
177
     2
291
     1
 71
     2
176
     1
 72
     2
176
     1
 73
     1
176
     1
 90
        2
176
     1
 40
0.6
176
     1
 41
30.0
176
     1
 62
     5
 63
     7
421
 16777215
176
     1
 74
     1
176
     1
 91
        0
176
     1
 64
     7
176
     1
 65
   257
176
     1
 75
     1
176
     1
175
     1
176
     1
 42
1.0
176
     1
 92
        0
176
     1
 66
   257
176
     1
 43
1.0
176
     1
 76
     1
176
     1
 77
     6
176
     1
 78
     2
176
     1
 67
     7
176
     1
 79
     5
176
     1
170
     0
176
     1
171
     0
176
     1
290
     0
176
     1
 93
       13
176
     1
 44
0.0
176
     1
173
     0
176
     1
  0
VISUALSTYLE
  5
4FE
102
{ACAD_REACTORS
330
4F7
102
}
330
4F7
100
AcDbVisualStyle
  2
Hidden
 70
     6
177
     2
291
     0
 71
     1
176
     1
 72
     2
176
     1
 73
     2
176
     1
 90
        0
176
     1
 40
0.6
176
     1
 41
30.0
176
     1
 62
     5
 63
     7
421
 16777215
176
     1
 74
     2
176
     1
 91
        2
176
     1
 64
     7
176
     1
 65
   257
176
     1
 75
     2
176
     1
175
     1
176
     1
 42
40.0
176
     1
 92
        0
176
     1
 66
   257
176
     1
 43
1.0
176
     1
 76
     1
176
     1
 77
     6
176
     1
 78
     2
176
     1
 67
     7
176
     1
 79
     3
176
     1
170
     0
176
     1
171
     0
176
     1
290
     0
176
     1
 93
        1
176
     1
 44
0.0
176
     1
173
     0
176
     1
  0
VISUALSTYLE
  5
508
102
{ACAD_REACTORS
330
4F7
102
}
330
4F7
100
AcDbVisualStyle
  2
JitterOff
 70
    20
177
     2
291
     1
 71
     2
176
     0
 72
     2
176
     0
 73
     0
176
     0
 90
        0
176
     0
 40
0.6
176
     0
 41
30.0
176
     0
 62
     5
 63
     7
421
 16777215
176
     0
 74
     1
176
     0
 91
        4
176
     0
 64
     7
176
     0
 65
   257
176
     0
 75
     1
176
     0
175
     1
176
     0
 42
1.0
176
     0
 92
       10
176
     2
 66
     7
176
     0
 43
1.0
176
     0
 76
     1
176
     0
 77
     6
176
     0
 78
     2
176
     0
 67
     7
176
     0
 79
     5
176
     0
170
     0
176
     0
171
     0
176
     0
290
     0
176
     0
 93
        1
176
     0
 44
0.0
176
     0
173
     0
176
     0
  0
VISUALSTYLE
  5
505
102
{ACAD_REACTORS
330
4F7
102
}
330
4F7
100
AcDbVisualStyle
  2
Linepattern
 70
    14
177
     2
291
     1
 71
     2
176
     1
 72
     2
176
     1
 73
     0
176
     1
 90
        0
176
     1
 40
0.6
176
     1
 41
30.0
176
     1
 62
     5
 63
     7
421
 16777215
176
     1
 74
     1
176
     1
 91
        4
176
     1
 64
     7
176
     1
 65
   257
176
     1
 75
     7
176
     1
175
     7
176
     1
 42
1.0
176
     1
 92
        8
176
     1
 66
     7
176
     1
 43
1.0
176
     1
 76
     1
176
     1
 77
     6
176
     1
 78
     2
176
     1
 67
     7
176
     1
 79
     5
176
     1
170
     0
176
     1
171
     0
176
     1
290
     0
176
     1
 93
        1
176
     1
 44
0.0
176
     1
173
     0
176
     1
  0
VISUALSTYLE
  5
53A
102
{ACAD_REACTORS
330
4F7
102
}
330
4F7
100
AcDbVisualStyle
  2
Modeling
 70
    10
177
     2
291
     0
 71
     2
176
     1
 72
     3
176
     1
 73
     0
176
     1
 90
        2
176
     1
 40
0.6
176
     1
 41
30.0
176
     1
 62
     5
 63
     7
421
 16777215
176
     1
 74
     2
176
     1
 91
        0
176
     1
 64
     7
176
     1
 65
   257
176
     1
 75
     1
176
     1
175
     1
176
     1
 42
180.0
176
     1
 92
        8
176
     1
 66
     8
424
  7895160
176
     1
 43
1.0
176
     1
 76
     1
176
     1
 77
     6
176
     1
 78
     2
176
     1
 67
     7
176
     1
 79
     5
176
     1
170
     0
176
     1
171
     0
176
     1
290
     0
176
     1
 93
       13
176
     1
 44
0.0
176
     1
173
     0
176
     1
  0
VISUALSTYLE
  5
509
102
{ACAD_REACTORS
330
4F7
102
}
330
4F7
100
AcDbVisualStyle
  2
OverhangOff
 70
    21
177
     2
291
     1
 71
     2
176
     0
 72
     2
176
     0
 73
     0
176
     0
 90
        0
176
     0
 40
0.6
176
     0
 41
30.0
176
     0
 62
     5
 63
     7
421
 16777215
176
     0
 74
     1
176
     0
 91
        4
176
     0
 64
     7
176
     0
 65
   257
176
     0
 75
     1
176
     0
175
     1
176
     0
 42
1.0
176
     0
 92
        9
176
     2
 66
     7
176
     0
 43
1.0
176
     0
 76
     1
176
     0
 77
     6
176
     0
 78
     2
176
     0
 67
     7
176
     0
 79
     5
176
     0
170
     0
176
     0
171
     0
176
     0
290
     0
176
     0
 93
        1
176
     0
 44
0.0
176
     0
173
     0
176
     0
  0
VISUALSTYLE
  5
500
102
{ACAD_REACTORS
330
4F7
102
}
330
4F7
100
AcDbVisualStyle
  2
Realistic
 70
     8
177
     2
291
     0
 71
     2
176
     1
 72
     3
176
     1
 73
     0
176
     1
 90
        2
176
     1
 40
0.6
176
     1
 41
30.0
176
     1
 62
     5
 63
     7
421
 16777215
176
     1
 74
     0
176
     1
 91
        0
176
     1
 64
     7
176
     1
 65
   257
176
     1
 75
     1
176
     1
175
     1
176
     1
 42
1.0
176
     1
 92
        8
176
     1
 66
   257
176
     1
 43
1.0
176
     1
 76
     1
176
     1
 77
     6
176
     1
 78
     2
176
     1
 67
     7
176
     1
 79
     3
176
     1
170
     0
176
     1
171
     0
176
     1
290
     0
176
     1
 93
       13
176
     1
 44
0.0
176
     1
173
     0
176
     1
  0
VISUALSTYLE
  5
50F
102
{ACAD_REACTORS
330
4F7
102
}
330
4F7
100
AcDbVisualStyle
  2
Shaded
 70
    27
177
     2
291
     0
 71
     2
176
     1
 72
     2
176
     1
 73
     1
176
     1
 90
        2
176
     1
 40
0.6
176
     1
 41
30.0
176
     1
 62
     5
 63
     7
421
 16777215
176
     1
 74
     0
176
     1
 91
        4
176
     1
 64
     7
176
     1
 65
   257
176
     1
 75
     1
176
     1
175
     1
176
     1
 42
1.0
176
     1
 92
        8
176
     1
 66
   257
176
     1
 43
1.0
176
     1
 76
     1
176
     1
 77
     6
176
     1
 78
     2
176
     1
 67
     8
425
  7895160
176
     1
 79
     3
176
     1
170
     0
176
     1
171
     0
176
     1
290
     0
176
     1
 93
        5
176
     1
 44
0.0
176
     1
173
     0
176
     1
  0
VISUALSTYLE
  5
50E
102
{ACAD_REACTORS
330
4F7
102
}
330
4F7
100
AcDbVisualStyle
  2
Shaded with edges
 70
    26
177
     2
291
     0
 71
     2
176
     1
 72
     2
176
     1
 73
     1
176
     1
 90
        2
176
     1
 40
0.6
176
     1
 41
30.0
176
     1
 62
     5
 63
     7
421
 16777215
176
     1
 74
     1
176
     1
 91
       10
176
     1
 64
     7
176
     1
 65
   257
176
     1
 75
     2
176
     1
175
     1
176
     1
 42
1.0
176
     1
 92
        8
176
     1
 66
   257
176
     1
 43
1.0
176
     1
 76
     1
176
     1
 77
     6
176
     1
 78
     2
176
     1
 67
     7
176
     1
 79
     3
176
     1
170
     0
176
     1
171
     0
176
     1
290
     0
176
     1
 93
        5
176
     1
 44
0.0
176
     1
173
     0
176
     1
  0
VISUALSTYLE
  5
50B
102
{ACAD_REACTORS
330
4F7
102
}
330
4F7
100
AcDbVisualStyle
  2
Shades of Gray
 70
    23
177
     2
291
     0
 71
     2
176
     1
 72
     2
176
     1
 73
     3
176
     1
 90
        0
176
     1
 40
0.6
176
     1
 41
30.0
176
     1
 62
     5
 63
     7
421
 16777215
176
     1
 74
     2
176
     1
 91
        2
176
     1
 64
     7
176
     1
 65
     7
176
     1
 75
     1
176
     1
175
     1
176
     1
 42
40.0
176
     1
 92
        8
176
     1
 66
     7
176
     1
 43
1.0
176
     1
 76
     1
176
     1
 77
     6
176
     1
 78
     2
176
     1
 67
     7
176
     1
 79
     3
176
     1
170
     0
176
     1
171
     0
176
     1
290
     0
176
     1
 93
        1
176
     1
 44
0.0
176
     1
173
     0
176
     1
  0
VISUALSTYLE
  5
50C
102
{ACAD_REACTORS
330
4F7
102
}
330
4F7
100
AcDbVisualStyle
  2
Sketchy
 70
    24
177
     2
291
     0
 71
     1
176
     1
 72
     2
176
     1
 73
     2
176
     1
 90
        0
176
     1
 40
0.6
176
     1
 41
30.0
176
     1
 62
     5
 63
     7
421
 16777215
176
     1
 74
     2
176
     1
 91
        2
176
     1
 64
     7
176
     1
 65
     7
176
     1
 75
     1
176
     1
175
     1
176
     1
 42
40.0
176
     1
 92
       11
176
     1
 66
     7
176
     1
 43
1.0
176
     1
 76
     1
176
     1
 77
     6
176
     1
 78
     2
176
     1
 67
     7
176
     1
 79
     6
176
     1
170
     0
176
     1
171
     0
176
     1
290
     0
176
     1
 93
        1
176
     1
 44
0.0
176
     1
173
     0
176
     1
  0
VISUALSTYLE
  5
504
102
{ACAD_REACTORS
330
4F7
102
}
330
4F7
100
AcDbVisualStyle
  2
Thicken
 70
    13
177
     2
291
     1
 71
     2
176
     1
 72
     2
176
     1
 73
     0
176
     1
 90
        0
176
     1
 40
0.6
176
     1
 41
30.0
176
     1
 62
     5
 63
     7
421
 16777215
176
     1
 74
     1
176
     1
 91
        4
176
     1
 64
     7
176
     1
 65
   257
176
     1
 75
     1
176
     1
175
     1
176
     1
 42
1.0
176
     1
 92
       12
176
     1
 66
     7
176
     1
 43
1.0
176
     1
 76
     1
176
     1
 77
     6
176
     1
 78
     2
176
     1
 67
     7
176
     1
 79
     5
176
     1
170
     0
176
     1
171
     0
176
     1
290
     0
176
     1
 93
        1
176
     1
 44
0.0
176
     1
173
     0
176
     1
  0
VISUALSTYLE
  5
4FD
102
{ACAD_REACTORS
330
4F7
102
}
330
4F7
100
AcDbVisualStyle
  2
Wireframe
 70
     5
177
     2
291
     0
 71
     0
176
     1
 72
     2
176
     1
 73
     0
176
     1
 90
        0
176
     1
 40
0.6
176
     1
 41
30.0
176
     1
 62
     5
 63
     7
421
 16777215
176
     1
 74
     1
176
     1
 91
        4
176
     1
 64
     7
176
     1
 65
   257
176
     1
 75
     1
176
     1
175
     1
176
     1
 42
1.0
176
     1
 92
        0
176
     1
 66
   257
176
     1
 43
1.0
176
     1
 76
     1
176
     1
 77
     6
176
     1
 78
     2
176
     1
 67
     7
176
     1
 79
     3
176
     1
170
     0
176
     1
171
     0
176
     1
290
     0
176
     1
 93
        1
176
     1
 44
0.0
176
     1
173
     0
176
     1
  0
VISUALSTYLE
  5
50D
102
{ACAD_REACTORS
330
4F7
102
}
330
4F7
100
AcDbVisualStyle
  2
X-Ray
 70
    25
177
     2
291
     0
 71
     2
176
     1
 72
     2
176
     1
 73
     1
176
     1
 90
        1
176
     1
 40
0.5
176
     1
 41
30.0
176
     1
 62
     5
 63
     7
421
 16777215
176
     1
 74
     1
176
     1
 91
        0
176
     1
 64
     7
176
     1
 65
   257
176
     1
 75
     1
176
     1
175
     1
176
     1
 42
1.0
176
     1
 92
        8
176
     1
 66
     7
176
     1
 43
1.0
176
     1
 76
     1
176
     1
 77
     6
176
     1
 78
     2
176
     1
 67
     7
176
     1
 79
     3
176
     1
170
     0
176
     1
171
     0
176
     1
290
     0
176
     1
 93
       13
176
     1
 44
0.0
176
     1
173
     0
176
     1
  0
DICTIONARYVAR
  5
5BB
102
{ACAD_REACTORS
330
5B
102
}
330
5B
100
DictionaryVariables
280
     0
  1
1:1
  0
DICTIONARYVAR
  5
5BD
102
{ACAD_REACTORS
330
5B
102
}
330
5B
100
DictionaryVariables
280
     0
  1
Standard
  0
DICTIONARYVAR
  5
5BC
102
{ACAD_REACTORS
330
5B
102
}
330
5B
100
DictionaryVariables
280
     0
  1
Standard
  0
DICTIONARYVAR
  5
5D
102
{ACAD_REACTORS
330
5B
102
}
330
5B
100
DictionaryVariables
280
     0
  1
2
  0
DICTIONARYVAR
  5
5C
102
{ACAD_REACTORS
330
5B
102
}
330
5B
100
DictionaryVariables
280
     0
  1
1
  0
DICTIONARYVAR
  5
71B
102
{ACAD_REACTORS
330
5B
102
}
330
5B
100
DictionaryVariables
280
     0
  1
RP_EPDM
  0
DICTIONARYVAR
  5
5BE
102
{ACAD_REACTORS
330
5B
102
}
330
5B
100
DictionaryVariables
280
     0
  1
0
  0
DICTIONARY
  5
70F
102
{ACAD_REACTORS
330
70E
102
}
330
70E
100
AcDbDictionary
281
     1
  0
DICTIONARY
  5
712
102
{ACAD_REACTORS
330
711
102
}
330
711
100
AcDbDictionary
281
     1
  0
DICTIONARY
  5
61A
102
{ACAD_REACTORS
330
619
102
}
330
619
100
AcDbDictionary
281
     1
  0
DICTIONARY
  5
612
102
{ACAD_REACTORS
330
611
102
}
330
611
100
AcDbDictionary
281
     1
  0
DICTIONARY
  5
617
102
{ACAD_REACTORS
330
616
102
}
330
616
100
AcDbDictionary
281
     1
  0
DICTIONARY
  5
716
102
{ACAD_REACTORS
330
715
102
}
330
715
100
AcDbDictionary
281
     1
  0
DICTIONARY
  5
71A
102
{ACAD_REACTORS
330
719
102
}
330
719
100
AcDbDictionary
281
     1
  0
DICTIONARY
  5
80E
102
{ACAD_REACTORS
330
80D
102
}
330
80D
100
AcDbDictionary
281
     1
  0
DICTIONARY
  5
813
102
{ACAD_REACTORS
330
812
102
}
330
812
100
AcDbDictionary
281
     1
  0
DICTIONARY
  5
84C
102
{ACAD_REACTORS
330
84B
102
}
330
84B
100
AcDbDictionary
281
     1
  0
DICTIONARY
  5
885
102
{ACAD_REACTORS
330
884
102
}
330
884
100
AcDbDictionary
281
     1
  0
DICTIONARY
  5
8BE
102
{ACAD_REACTORS
330
8BD
102
}
330
8BD
100
AcDbDictionary
281
     1
  0
DICTIONARY
  5
8F7
102
{ACAD_REACTORS
330
8F6
102
}
330
8F6
100
AcDbDictionary
281
     1
  0
DICTIONARY
  5
98D
102
{ACAD_REACTORS
330
98C
102
}
330
98C
100
AcDbDictionary
281
     1
  0
DICTIONARY
  5
991
102
{ACAD_REACTORS
330
990
102
}
330
990
100
AcDbDictionary
281
     1
  0
DICTIONARY
  5
995
102
{ACAD_REACTORS
330
994
102
}
330
994
100
AcDbDictionary
281
     1
  0
DICTIONARY
  5
999
102
{ACAD_REACTORS
330
998
102
}
330
998
100
AcDbDictionary
281
     1
  0
DICTIONARY
  5
9D2
102
{ACAD_REACTORS
330
9D1
102
}
330
9D1
100
AcDbDictionary
281
     1
  0
DICTIONARY
  5
AAF
102
{ACAD_REACTORS
330
AAE
102
}
330
AAE
100
AcDbDictionary
281
     1
  0
DICTIONARY
  5
AB3
102
{ACAD_REACTORS
330
AB2
102
}
330
AB2
100
AcDbDictionary
281
     1
  0
DICTIONARY
  5
AE8
330
537
100
AcDbDictionary
280
     1
281
     1
  3
ACAD_ROUNDTRIP_2008_TABLESTYLE_CELLSTYLEMAP
360
AE9
  0
CELLSTYLEMAP
  5
AE9
102
{ACAD_REACTORS
330
AE8
102
}
330
AE8
100
AcDbCellStyleMap
 90
        3
300
CELLSTYLE
  1
TABLEFORMAT_BEGIN
 90
        5
170
     1
 91
        0
 92
    32768
 62
   257
 93
        1
300
CONTENTFORMAT
  1
CONTENTFORMAT_BEGIN
 90
        0
 91
        0
 92
        4
 93
        0
300

 40
0.0
140
1.0
 94
        5
 62
     0
340
11
144
6.0
309
CONTENTFORMAT_END
171
     1
301
MARGIN
  1
CELLMARGIN_BEGIN
 40
1.5
 40
1.5
 40
1.5
 40
1.5
 40
1.5
 40
1.5
309
CELLMARGIN_END
 94
        6
 95
        1
302
GRIDFORMAT
  1
GRIDFORMAT_BEGIN
 90
        0
 91
        1
 62
     0
 92
       -2
340
14
 93
        0
 40
0.045
309
GRIDFORMAT_END
 95
        2
302
GRIDFORMAT
  1
GRIDFORMAT_BEGIN
 90
        0
 91
        1
 62
     0
 92
       -2
340
14
 93
        0
 40
0.045
309
GRIDFORMAT_END
 95
        4
302
GRIDFORMAT
  1
GRIDFORMAT_BEGIN
 90
        0
 91
        1
 62
     0
 92
       -2
340
14
 93
        0
 40
0.045
309
GRIDFORMAT_END
 95
        8
302
GRIDFORMAT
  1
GRIDFORMAT_BEGIN
 90
        0
 91
        1
 62
     0
 92
       -2
340
14
 93
        0
 40
0.045
309
GRIDFORMAT_END
 95
       16
302
GRIDFORMAT
  1
GRIDFORMAT_BEGIN
 90
        0
 91
        1
 62
     0
 92
       -2
340
14
 93
        0
 40
0.045
309
GRIDFORMAT_END
 95
       32
302
GRIDFORMAT
  1
GRIDFORMAT_BEGIN
 90
        0
 91
        1
 62
     0
 92
       -2
340
14
 93
        0
 40
0.045
309
GRIDFORMAT_END
309
TABLEFORMAT_END
  1
CELLSTYLE_BEGIN
 90
        1
 91
        1
300
_TITLE
309
CELLSTYLE_END
300
CELLSTYLE
  1
TABLEFORMAT_BEGIN
 90
        5
170
     1
 91
        0
 92
        0
 62
   257
 93
        1
300
CONTENTFORMAT
  1
CONTENTFORMAT_BEGIN
 90
        0
 91
        0
 92
        4
 93
        0
300

 40
0.0
140
1.0
 94
        5
 62
     0
340
11
144
4.5
309
CONTENTFORMAT_END
171
     1
301
MARGIN
  1
CELLMARGIN_BEGIN
 40
1.5
 40
1.5
 40
1.5
 40
1.5
 40
1.5
 40
1.5
309
CELLMARGIN_END
 94
        6
 95
        1
302
GRIDFORMAT
  1
GRIDFORMAT_BEGIN
 90
        0
 91
        1
 62
     0
 92
       -2
340
14
 93
        0
 40
0.045
309
GRIDFORMAT_END
 95
        2
302
GRIDFORMAT
  1
GRIDFORMAT_BEGIN
 90
        0
 91
        1
 62
     0
 92
       -2
340
14
 93
        0
 40
0.045
309
GRIDFORMAT_END
 95
        4
302
GRIDFORMAT
  1
GRIDFORMAT_BEGIN
 90
        0
 91
        1
 62
     0
 92
       -2
340
14
 93
        0
 40
0.045
309
GRIDFORMAT_END
 95
        8
302
GRIDFORMAT
  1
GRIDFORMAT_BEGIN
 90
        0
 91
        1
 62
     0
 92
       -2
340
14
 93
        0
 40
0.045
309
GRIDFORMAT_END
 95
       16
302
GRIDFORMAT
  1
GRIDFORMAT_BEGIN
 90
        0
 91
        1
 62
     0
 92
       -2
340
14
 93
        0
 40
0.045
309
GRIDFORMAT_END
 95
       32
302
GRIDFORMAT
  1
GRIDFORMAT_BEGIN
 90
        0
 91
        1
 62
     0
 92
       -2
340
14
 93
        0
 40
0.045
309
GRIDFORMAT_END
309
TABLEFORMAT_END
  1
CELLSTYLE_BEGIN
 90
        2
 91
        1
300
_HEADER
309
CELLSTYLE_END
300
CELLSTYLE
  1
TABLEFORMAT_BEGIN
 90
        5
170
     1
 91
        0
 92
        0
 62
   257
 93
        1
300
CONTENTFORMAT
  1
CONTENTFORMAT_BEGIN
 90
        0
 91
        0
 92
        4
 93
        0
300

 40
0.0
140
1.0
 94
        2
 62
     0
340
11
144
4.5
309
CONTENTFORMAT_END
171
     1
301
MARGIN
  1
CELLMARGIN_BEGIN
 40
1.5
 40
1.5
 40
1.5
 40
1.5
 40
1.5
 40
1.5
309
CELLMARGIN_END
 94
        6
 95
        1
302
GRIDFORMAT
  1
GRIDFORMAT_BEGIN
 90
        0
 91
        1
 62
     0
 92
       -2
340
14
 93
        0
 40
0.045
309
GRIDFORMAT_END
 95
        2
302
GRIDFORMAT
  1
GRIDFORMAT_BEGIN
 90
        0
 91
        1
 62
     0
 92
       -2
340
14
 93
        0
 40
0.045
309
GRIDFORMAT_END
 95
        4
302
GRIDFORMAT
  1
GRIDFORMAT_BEGIN
 90
        0
 91
        1
 62
     0
 92
       -2
340
14
 93
        0
 40
0.045
309
GRIDFORMAT_END
 95
        8
302
GRIDFORMAT
  1
GRIDFORMAT_BEGIN
 90
        0
 91
        1
 62
     0
 92
       -2
340
14
 93
        0
 40
0.045
309
GRIDFORMAT_END
 95
       16
302
GRIDFORMAT
  1
GRIDFORMAT_BEGIN
 90
        0
 91
        1
 62
     0
 92
       -2
340
14
 93
        0
 40
0.045
309
GRIDFORMAT_END
 95
       32
302
GRIDFORMAT
  1
GRIDFORMAT_BEGIN
 90
        0
 91
        1
 62
     0
 92
       -2
340
14
 93
        0
 40
0.045
309
GRIDFORMAT_END
309
TABLEFORMAT_END
  1
CELLSTYLE_BEGIN
 90
        3
 91
        2
300
_DATA
309
CELLSTYLE_END
  0
ENDSEC
  0
EOF
