  0
SECTION
  2
HEADER
  9
$ACADVER
  1
AC1015
  9
$ACADMAINTVER
 70
     6
  9
$DWGCODEPAGE
  3
ANSI_1252
  9
$INSBASE
 10
0.0
 20
0.0
 30
0.0
  9
$EXTMIN
 10
0.0
 20
0.0
 30
0.0
  9
$EXTMAX
 10
1050.0
 20
1485.0
 30
0.0
  9
$LIMMIN
 10
0.0
 20
0.0
  9
$LIMMAX
 10
420.0
 20
297.0
  9
$ORTHOMODE
 70
     0
  9
$REGENMODE
 70
     1
  9
$FILLMODE
 70
     1
  9
$QTEXTMODE
 70
     0
  9
$MIRRTEXT
 70
     1
  9
$LTSCALE
 40
1.0
  9
$ATTMODE
 70
     1
  9
$TEXTSIZE
 40
2.5
  9
$TRACEWID
 40
1.0
  9
$TEXTSTYLE
  7
Standard
  9
$CLAYER
  8
0
  9
$CELTYPE
  6
ByLayer
  9
$CECOLOR
 62
   256
  9
$CELTSCALE
 40
1.0
  9
$DISPSILH
 70
     0
  9
$DIMSCALE
 40
1.0
  9
$DIMASZ
 40
2.5
  9
$DIMEXO
 40
0.625
  9
$DIMDLI
 40
3.75
  9
$DIMRND
 40
0.0
  9
$DIMDLE
 40
0.0
  9
$DIMEXE
 40
1.25
  9
$DIMTP
 40
0.0
  9
$DIMTM
 40
0.0
  9
$DIMTXT
 40
2.5
  9
$DIMCEN
 40
2.5
  9
$DIMTSZ
 40
0.0
  9
$DIMTOL
 70
     0
  9
$DIMLIM
 70
     0
  9
$DIMTIH
 70
     0
  9
$DIMTOH
 70
     0
  9
$DIMSE1
 70
     0
  9
$DIMSE2
 70
     0
  9
$DIMTAD
 70
     1
  9
$DIMZIN
 70
     8
  9
$DIMBLK
  1

  9
$DIMASO
 70
     1
  9
$DIMSHO
 70
     1
  9
$DIMPOST
  1

  9
$DIMAPOST
  1

  9
$DIMALT
 70
     0
  9
$DIMALTD
 70
     3
  9
$DIMALTF
 40
0.03937
  9
$DIMLFAC
 40
1.0
  9
$DIMTOFL
 70
     1
  9
$DIMTVP
 40
0.0
  9
$DIMTIX
 70
     0
  9
$DIMSOXD
 70
     0
  9
$DIMSAH
 70
     0
  9
$DIMBLK1
  1

  9
$DIMBLK2
  1

  9
$DIMSTYLE
  2
ISO-25
  9
$DIMCLRD
 70
     0
  9
$DIMCLRE
 70
     0
  9
$DIMCLRT
 70
     0
  9
$DIMTFAC
 40
1.0
  9
$DIMGAP
 40
0.625
  9
$DIMJUST
 70
     0
  9
$DIMSD1
 70
     0
  9
$DIMSD2
 70
     0
  9
$DIMTOLJ
 70
     0
  9
$DIMTZIN
 70
     8
  9
$DIMALTZ
 70
     0
  9
$DIMALTTZ
 70
     0
  9
$DIMUPT
 70
     0
  9
$DIMDEC
 70
     2
  9
$DIMTDEC
 70
     2
  9
$DIMALTU
 70
     2
  9
$DIMALTTD
 70
     3
  9
$DIMTXSTY
  7
Standard
  9
$DIMAUNIT
 70
     0
  9
$DIMADEC
 70
     0
  9
$DIMALTRND
 40
0.0
  9
$DIMAZIN
 70
     0
  9
$DIMDSEP
 70
    44
  9
$DIMATFIT
 70
     3
  9
$DIMFRAC
 70
     0
  9
$DIMLDRBLK
  1

  9
$DIMLUNIT
 70
     2
  9
$DIMLWD
 70
    -2
  9
$DIMLWE
 70
    -2
  9
$DIMTMOVE
 70
     0
  9
$LUNITS
 70
     2
  9
$LUPREC
 70
     4
  9
$SKETCHINC
 40
1.0
  9
$FILLETRAD
 40
10.0
  9
$AUNITS
 70
     0
  9
$AUPREC
 70
     0
  9
$MENU
  1
.
  9
$ELEVATION
 40
0.0
  9
$PELEVATION
 40
0.0
  9
$THICKNESS
 40
0.0
  9
$LIMCHECK
 70
     0
  9
$CHAMFERA
 40
10.0
  9
$CHAMFERB
 40
10.0
  9
$CHAMFERC
 40
20.0
  9
$CHAMFERD
 40
0.0
  9
$SKPOLY
 70
     0
  9
$TDCREATE
 40
2453866.479284074
  9
$TDUCREATE
 40
2453866.395950740
  9
$TDUPDATE
 40
2454243.646546759
  9
$TDUUPDATE
 40
2454243.563213426
  9
$TDINDWG
 40
0.0004340972
  9
$TDUSRTIMER
 40
0.0004340972
  9
$USRTIMER
 70
     1
  9
$ANGBASE
 50
0.0
  9
$ANGDIR
 70
     0
  9
$PDMODE
 70
     0
  9
$PDSIZE
 40
0.0
  9
$PLINEWID
 40
0.0
  9
$SPLFRAME
 70
     0
  9
$SPLINETYPE
 70
     6
  9
$SPLINESEGS
 70
     8
  9
$HANDSEED
  5
A8
  9
$SURFTAB1
 70
     6
  9
$SURFTAB2
 70
     6
  9
$SURFTYPE
 70
     6
  9
$SURFU
 70
     6
  9
$SURFV
 70
     6
  9
$UCSBASE
  2

  9
$UCSNAME
  2

  9
$UCSORG
 10
0.0
 20
0.0
 30
0.0
  9
$UCSXDIR
 10
1.0
 20
0.0
 30
0.0
  9
$UCSYDIR
 10
0.0
 20
1.0
 30
0.0
  9
$UCSORTHOREF
  2

  9
$UCSORTHOVIEW
 70
     0
  9
$UCSORGTOP
 10
0.0
 20
0.0
 30
0.0
  9
$UCSORGBOTTOM
 10
0.0
 20
0.0
 30
0.0
  9
$UCSORGLEFT
 10
0.0
 20
0.0
 30
0.0
  9
$UCSORGRIGHT
 10
0.0
 20
0.0
 30
0.0
  9
$UCSORGFRONT
 10
0.0
 20
0.0
 30
0.0
  9
$UCSORGBACK
 10
0.0
 20
0.0
 30
0.0
  9
$PUCSBASE
  2

  9
$PUCSNAME
  2

  9
$PUCSORG
 10
0.0
 20
0.0
 30
0.0
  9
$PUCSXDIR
 10
1.0
 20
0.0
 30
0.0
  9
$PUCSYDIR
 10
0.0
 20
1.0
 30
0.0
  9
$PUCSORTHOREF
  2

  9
$PUCSORTHOVIEW
 70
     0
  9
$PUCSORGTOP
 10
0.0
 20
0.0
 30
0.0
  9
$PUCSORGBOTTOM
 10
0.0
 20
0.0
 30
0.0
  9
$PUCSORGLEFT
 10
0.0
 20
0.0
 30
0.0
  9
$PUCSORGRIGHT
 10
0.0
 20
0.0
 30
0.0
  9
$PUCSORGFRONT
 10
0.0
 20
0.0
 30
0.0
  9
$PUCSORGBACK
 10
0.0
 20
0.0
 30
0.0
  9
$USERI1
 70
     0
  9
$USERI2
 70
     0
  9
$USERI3
 70
     0
  9
$USERI4
 70
     0
  9
$USERI5
 70
     0
  9
$USERR1
 40
0.0
  9
$USERR2
 40
0.0
  9
$USERR3
 40
0.0
  9
$USERR4
 40
0.0
  9
$USERR5
 40
0.0
  9
$WORLDVIEW
 70
     1
  9
$SHADEDGE
 70
     3
  9
$SHADEDIF
 70
    70
  9
$TILEMODE
 70
     1
  9
$MAXACTVP
 70
    64
  9
$PINSBASE
 10
0.0
 20
0.0
 30
0.0
  9
$PLIMCHECK
 70
     0
  9
$PEXTMIN
 10
1.000000E+20
 20
1.000000E+20
 30
1.000000E+20
  9
$PEXTMAX
 10
-1.000000E+20
 20
-1.000000E+20
 30
-1.000000E+20
  9
$PLIMMIN
 10
0.0
 20
0.0
  9
$PLIMMAX
 10
420.0
 20
297.0
  9
$UNITMODE
 70
     0
  9
$VISRETAIN
 70
     1
  9
$PLINEGEN
 70
     0
  9
$PSLTSCALE
 70
     1
  9
$TREEDEPTH
 70
  3020
  9
$CMLSTYLE
  2
Standard
  9
$CMLJUST
 70
     0
  9
$CMLSCALE
 40
20.0
  9
$PROXYGRAPHICS
 70
     1
  9
$MEASUREMENT
 70
     1
  9
$CELWEIGHT
370
    -1
  9
$ENDCAPS
280
     0
  9
$JOINSTYLE
280
     0
  9
$LWDISPLAY
290
     0
  9
$INSUNITS
 70
     4
  9
$HYPERLINKBASE
  1

  9
$STYLESHEET
  1

  9
$XEDIT
290
     1
  9
$CEPSNTYPE
380
     0
  9
$PSTYLEMODE
290
     1
  9
$FINGERPRINTGUID
  2
{361B34AB-7CDE-40BF-AA94-934DB803392F}
  9
$VERSIONGUID
  2
{9B253537-04B6-4D23-9185-DB26F4E73F15}
  9
$EXTNAMES
290
     1
  9
$PSVPSCALE
 40
0.0
  9
$OLESTARTUP
290
     0
  0
ENDSEC
  0
SECTION
  2
CLASSES
  0
CLASS
  1
ACDBDICTIONARYWDFLT
  2
AcDbDictionaryWithDefault
  3
AutoCAD 2000
 90
        0
280
     0
281
     0
  0
CLASS
  1
ACDBPLACEHOLDER
  2
AcDbPlaceHolder
  3
AutoCAD 2000
 90
        0
280
     0
281
     0
  0
CLASS
  1
LAYOUT
  2
AcDbLayout
  3
AutoCAD 2000
 90
        0
280
     0
281
     0
  0
CLASS
  1
DICTIONARYVAR
  2
AcDbDictionaryVar
  3
AutoCAD 2000
 90
    32768
280
     0
281
     0
  0
ENDSEC
  0
SECTION
  2
TABLES
  0
TABLE
  2
VPORT
  5
99
330
0
100
AcDbSymbolTable
 70
     2
  0
VPORT
  5
A7
330
99
100
AcDbSymbolTableRecord
100
AcDbViewportTableRecord
  2
*Active
 70
     0
 10
0.0
 20
0.0
 11
1.0
 21
1.0
 12
244.911991
 22
148.5
 13
0.0
 23
0.0
 14
10.0
 24
10.0
 15
10.0
 25
10.0
 16
0.0
 26
0.0
 36
1.0
 17
0.0
 27
0.0
 37
0.0
 40
111.255627
 41
2.090909
 42
50.0
 43
0.0
 44
0.0
 50
0.0
 51
0.0
 71
     0
 72
   100
 73
     1
 74
     3
 75
     0
 76
     0
 77
     0
 78
     0
281
     0
 65
     1
110
0.0
120
0.0
130
0.0
111
1.0
121
0.0
131
0.0
112
0.0
122
1.0
132
0.0
 79
     0
146
0.0
  0
ENDTAB
  0
TABLE
  2
LTYPE
  5
94
330
0
100
AcDbSymbolTable
 70
     3
  0
LTYPE
  5
95
330
94
100
AcDbSymbolTableRecord
100
AcDbLinetypeTableRecord
  2
ByBlock
 70
     0
  3

 72
    65
 73
     0
 40
0.0
  0
LTYPE
  5
96
330
94
100
AcDbSymbolTableRecord
100
AcDbLinetypeTableRecord
  2
ByLayer
 70
     0
  3

 72
    65
 73
     0
 40
0.0
  0
LTYPE
  5
8
330
94
100
AcDbSymbolTableRecord
100
AcDbLinetypeTableRecord
  2
Continuous
 70
     0
  3
Solid line
 72
    65
 73
     0
 40
0.0
  0
LTYPE
  5
41
330
94
100
AcDbSymbolTableRecord
100
AcDbLinetypeTableRecord
  2
DASHDOT2
 70
     0
  3
Dash dot (.5x) _._._._._._._._._._._._._._._.
 72
    65
 73
     4
 40
12.7
 49
6.35
 74
     0
 49
-3.175
 74
     0
 49
0.0
 74
     0
 49
-3.175
 74
     0
  0
LTYPE
  5
3B
330
94
100
AcDbSymbolTableRecord
100
AcDbLinetypeTableRecord
  2
DASHED2
 70
     0
  3
Dashed (.5x) _ _ _ _ _ _ _ _ _ _ _ _ _ _ _ _ _
 72
    65
 73
     2
 40
9.525
 49
6.35
 74
     0
 49
-3.175
 74
     0
  0
ENDTAB
  0
TABLE
  2
LAYER
  5
90
330
0
100
AcDbSymbolTable
 70
     7
  0
LAYER
  5
16
330
90
100
AcDbSymbolTableRecord
100
AcDbLayerTableRecord
  2
0
 70
     0
 62
     7
  6
Continuous
370
    -3
390
5
  0
LAYER
  5
4
330
90
100
AcDbSymbolTableRecord
100
AcDbLayerTableRecord
  2
A--L1---
 70
     0
 62
     7
  6
Continuous
370
    -3
390
5
  0
LAYER
  5
19
330
90
100
AcDbSymbolTableRecord
100
AcDbLayerTableRecord
  2
A--L31--
 70
     0
 62
     7
  6
Continuous
370
    -3
390
5
  0
LAYER
  5
B
330
90
100
AcDbSymbolTableRecord
100
AcDbLayerTableRecord
  2
A--T108-
 70
     0
 62
     7
  6
Continuous
370
    -3
390
5
  0
LAYER
  5
80
330
90
100
AcDbSymbolTableRecord
100
AcDbLayerTableRecord
  2
A--L107-
 70
     0
 62
     7
  6
Continuous
370
    -3
390
5
  0
LAYER
  5
83
330
90
100
AcDbSymbolTableRecord
100
AcDbLayerTableRecord
  2
A--T1---
 70
     0
 62
     7
  6
Continuous
370
    -3
390
5
  0
LAYER
  5
86
330
90
100
AcDbSymbolTableRecord
100
AcDbLayerTableRecord
  2
A--L98--
 70
     0
 62
     7
  6
Continuous
370
    -3
390
5
  0
ENDTAB
  0
TABLE
  2
STYLE
  5
91
330
0
100
AcDbSymbolTable
 70
     3
  0
STYLE
  5
92
330
91
100
AcDbSymbolTableRecord
100
AcDbTextStyleTableRecord
  2
Standard
 70
     0
 40
0.0
 41
1.0
 50
0.0
 71
     0
 42
2.5
  3
txt
  4

  0
STYLE
  5
C
330
91
100
AcDbSymbolTableRecord
100
AcDbTextStyleTableRecord
  2
TSA-0_18
 70
     0
 40
0.0
 41
1.0
 50
0.0
 71
     0
 42
2.5
  3
TXT.SHX
  4

  0
STYLE
  5
84
330
91
100
AcDbSymbolTableRecord
100
AcDbTextStyleTableRecord
  2
TSA-7
 70
     0
 40
0.0
 41
1.0
 50
0.0
 71
     0
 42
2.5
  3
TXT.SHX
  4

  0
ENDTAB
  0
TABLE
  2
VIEW
  5
97
330
0
100
AcDbSymbolTable
 70
     0
  0
ENDTAB
  0
TABLE
  2
UCS
  5
98
330
0
100
AcDbSymbolTable
 70
     0
  0
ENDTAB
  0
TABLE
  2
APPID
  5
9B
330
0
100
AcDbSymbolTable
 70
     2
  0
APPID
  5
9C
330
9B
100
AcDbSymbolTableRecord
100
AcDbRegAppTableRecord
  2
ACAD
 70
     0
  0
APPID
  5
D
330
9B
100
AcDbSymbolTableRecord
100
AcDbRegAppTableRecord
  2
TSA_
 70
     0
  0
ENDTAB
  0
TABLE
  2
DIMSTYLE
  5
9D
330
0
100
AcDbSymbolTable
 70
     1
100
AcDbDimStyleTable
 71
     0
  0
DIMSTYLE
105
A3
330
9D
100
AcDbSymbolTableRecord
100
AcDbDimStyleTableRecord
  2
ISO-25
 70
     0
 41
2.5
 42
0.625
 43
3.75
 44
1.25
 73
     0
 74
     0
 77
     1
 78
     8
140
2.5
141
2.5
143
0.03937
147
0.625
171
     3
172
     1
271
     2
272
     2
274
     3
278
    44
283
     0
284
     8
340
92
  0
ENDTAB
  0
TABLE
  2
BLOCK_RECORD
  5
1
330
0
100
AcDbSymbolTable
 70
     5
  0
BLOCK_RECORD
  5
2
330
1
100
AcDbSymbolTableRecord
100
AcDbBlockTableRecord
  2
*Model_Space
340
8A
  0
BLOCK_RECORD
  5
8C
330
1
100
AcDbSymbolTableRecord
100
AcDbBlockTableRecord
  2
*Paper_Space
340
8F
  0
BLOCK_RECORD
  5
9
330
1
100
AcDbSymbolTableRecord
100
AcDbBlockTableRecord
  2
BDET1-359$2
340
0
102
{BLKREFS
331
3
102
}
  0
BLOCK_RECORD
  5
13
330
1
100
AcDbSymbolTableRecord
100
AcDbBlockTableRecord
  2
BSCHROEF$2
340
0
102
{BLKREFS
331
12
102
}
  0
BLOCK_RECORD
  5
1A
330
1
100
AcDbSymbolTableRecord
100
AcDbBlockTableRecord
  2
B153070RV$2
340
0
102
{BLKREFS
331
18
102
}
  0
BLOCK_RECORD
  5
1D
330
1
100
AcDbSymbolTableRecord
100
AcDbBlockTableRecord
  2
B2DUM$2
340
0
102
{BLKREFS
331
1C
331
27
331
34
331
38
331
3E
331
44
331
47
331
4A
331
53
331
57
331
5E
331
62
331
66
331
6A
331
70
331
73
331
77
331
7B
102
}
  0
BLOCK_RECORD
  5
25
330
1
100
AcDbSymbolTableRecord
100
AcDbBlockTableRecord
  2
BBOLBENAM$2
340
0
102
{BLKREFS
331
24
331
2B
331
2C
331
2D
331
31
102
}
  0
ENDTAB
  0
ENDSEC
  0
SECTION
  2
BLOCKS
  0
BLOCK
  5
88
330
2
100
AcDbEntity
  8
0
100
AcDbBlockBegin
  2
*Model_Space
 70
     0
 10
0.0
 20
0.0
 30
0.0
  3
*Model_Space
  1

  0
ENDBLK
  5
89
330
2
100
AcDbEntity
  8
0
100
AcDbBlockEnd
  0
BLOCK
  5
8D
330
8C
100
AcDbEntity
 67
     1
  8
0
100
AcDbBlockBegin
  2
*Paper_Space
 70
     0
 10
0.0
 20
0.0
 30
0.0
  3
*Paper_Space
  1

  0
ENDBLK
  5
8E
330
8C
100
AcDbEntity
 67
     1
  8
0
100
AcDbBlockEnd
  0
BLOCK
  5
7D
330
9
100
AcDbEntity
  8
0
100
AcDbBlockBegin
  2
BDET1-359$2
 70
     0
 10
0.0
 20
0.0
 30
0.0
  3
BDET1-359$2
  1

  0
TEXT
  5
A
330
9
100
AcDbEntity
  8
A--T108-
 62
     1
100
AcDbText
 10
85.0
 20
255.0
 30
0.0
 40
3.6
  1
ISOLATIE
 50
180.0
  7
TSA-0_18
 71
     6
100
AcDbText
1001
TSA_
1071
        1
1071
       -1
1071
        6
1071
       97
1071
        0
1004

1040
0.0
1071
       72
  0
TEXT
  5
E
330
9
100
AcDbEntity
  8
A--T108-
 62
     1
100
AcDbText
 10
85.0
 20
240.0
 30
0.0
 40
3.6
  1
DAMPDOORLATENDE FOLIE
 50
180.0
  7
TSA-0_18
 71
     6
100
AcDbText
1001
TSA_
1071
        1
1071
       -1
1071
        6
1071
       97
1071
        0
1004

1040
0.0
1071
       72
  0
TEXT
  5
F
330
9
100
AcDbEntity
  8
A--T108-
 62
     1
100
AcDbText
 10
85.0
 20
225.0
 30
0.0
 40
3.6
  1
GEVENTILEERDE SPOUW
 50
180.0
  7
TSA-0_18
 71
     6
100
AcDbText
1001
TSA_
1071
        1
1071
       -1
1071
        6
1071
       97
1071
        0
1004

1040
0.0
1071
       72
  0
TEXT
  5
10
330
9
100
AcDbEntity
  8
A--T108-
 62
     1
100
AcDbText
 10
85.0
 20
210.0
 30
0.0
 40
3.6
  1
ROCKPANELSTROOK^MBEVESTIGD MET EASY FIX 
 50
180.0
  7
TSA-0_18
 71
     6
100
AcDbText
1001
TSA_
1071
        1
1071
       -1
1071
        6
1071
       97
1071
        0
1004

1040
0.0
1071
       72
  0
TEXT
  5
11
330
9
100
AcDbEntity
  8
A--T108-
 62
     1
100
AcDbText
 10
85.0
 20
285.0
 30
0.0
 40
3.6
  1
STELRUIMTE 10MM
 50
180.0
  7
TSA-0_18
 71
     6
100
AcDbText
1001
TSA_
1071
        1
1071
       -1
1071
        6
1071
       97
1071
        0
1004

1040
0.0
1071
       72
  0
INSERT
  5
12
330
9
100
AcDbEntity
  8
A--L1---
100
AcDbBlockReference
  2
BSCHROEF$2
 10
253.0
 20
65.0
 30
0.0
 50
90.0
1001
TSA_
1071
        1
1071
       -1
1071
        2
1071
      255
1071
        0
1004

1040
0.0
  0
INSERT
  5
18
330
9
100
AcDbEntity
  8
A--L31--
100
AcDbBlockReference
  2
B153070RV$2
 10
205.0
 20
110.0
 30
0.0
1001
TSA_
1071
        1
1071
       -1
1071
        2
1071
      255
1071
        0
1004

1040
0.0
  0
INSERT
  5
24
330
9
100
AcDbEntity
  8
A--L1---
100
AcDbBlockReference
  2
BBOLBENAM$2
 10
265.5
 20
295.0
 30
0.0
1001
TSA_
1071
        1
1071
       -1
1071
        2
1071
      255
1071
        0
1004

1040
0.0
  0
INSERT
  5
2B
330
9
100
AcDbEntity
  8
A--L1---
100
AcDbBlockReference
  2
BBOLBENAM$2
 10
202.0
 20
295.0
 30
0.0
1001
TSA_
1071
        1
1071
       -1
1071
        2
1071
      255
1071
        0
1004

1040
0.0
  0
INSERT
  5
2C
330
9
100
AcDbEntity
  8
A--L1---
100
AcDbBlockReference
  2
BBOLBENAM$2
 10
186.0
 20
295.0
 30
0.0
1001
TSA_
1071
        1
1071
       -1
1071
        2
1071
      255
1071
        0
1004

1040
0.0
  0
INSERT
  5
2D
330
9
100
AcDbEntity
  8
A--L1---
100
AcDbBlockReference
  2
BBOLBENAM$2
 10
154.230469
 20
295.0
 30
0.0
1001
TSA_
1071
        1
1071
       -1
1071
        2
1071
      255
1071
        0
1004

1040
0.0
  0
TEXT
  5
2E
330
9
100
AcDbEntity
  8
A--T108-
 62
     1
100
AcDbText
 10
-85.0
 20
90.419434
 30
0.0
 40
3.6
  1
ALUMINIUM WATERSLAG
  7
TSA-0_18
100
AcDbText
1001
TSA_
1071
        1
1071
       -1
1071
        6
1071
       97
1071
        0
1004

1040
0.0
1071
       72
  0
TEXT
  5
2F
330
9
100
AcDbEntity
  8
A--T108-
 62
     1
100
AcDbText
 10
75.0
 20
25.0
 30
0.0
 40
3.6
  1
ROCKPANEL
  7
TSA-0_18
100
AcDbText
1001
TSA_
1071
        1
1071
       -1
1071
        6
1071
       97
1071
        0
1004

1040
0.0
1071
       72
  0
TEXT
  5
30
330
9
100
AcDbEntity
  8
A--T108-
 62
     1
100
AcDbText
 10
75.0
 20
-5.0
 30
0.0
 40
3.6
  1
ROCKPANEL RINGNAGEL
  7
TSA-0_18
100
AcDbText
1001
TSA_
1071
        1
1071
       -1
1071
        6
1071
       97
1071
        0
1004

1040
0.0
1071
       72
  0
INSERT
  5
31
330
9
100
AcDbEntity
  8
A--L1---
100
AcDbBlockReference
  2
BBOLBENAM$2
 10
167.5
 20
295.0
 30
0.0
1001
TSA_
1071
        1
1071
       -1
1071
        2
1071
      255
1071
        0
1004

1040
0.0
  0
TEXT
  5
32
330
9
100
AcDbEntity
  8
A--T108-
 62
     1
100
AcDbText
 10
85.0
 20
270.0
 30
0.0
 40
3.6
  1
EPDM VOEGBAND
 50
180.0
  7
TSA-0_18
 71
     6
100
AcDbText
1001
TSA_
1071
        1
1071
       -1
1071
        6
1071
       97
1071
        0
1004

1040
0.0
1071
       72
  0
HATCH
  5
33
330
9
100
AcDbEntity
  8
A--L1---
 62
     5
100
AcDbHatch
 10
0.0
 20
0.0
 30
0.0
210
0.0
220
0.0
230
1.0
  2
ANSI31
 70
     0
 71
     0
 91
        1
 92
        1
 93
        4
 72
     1
 10
203.0
 20
185.0
 11
328.0
 21
185.0
 72
     1
 10
328.0
 20
185.0
 11
328.0
 21
135.0
 72
     1
 10
328.0
 20
135.0
 11
203.0
 21
135.0
 72
     1
 10
203.0
 20
135.0
 11
203.0
 21
185.0
 97
        0
 75
     0
 76
     1
 52
90.00001494311726
 41
10.0
 77
     0
 78
     1
 53
135.0000149431172
 43
0.0
 44
0.0
 45
-22.45063444739702
 46
-22.4506461579472
 79
     0
 98
        1
 10
203.0
 20
185.0
1001
TSA_
1071
        1
1071
       -1
1071
        9
1071
      121
1071
        0
1004

1040
0.0
1071
       49
  0
INSERT
  5
34
330
9
100
AcDbEntity
  8
A--L1---
100
AcDbBlockReference
  2
B2DUM$2
 10
203.0
 20
185.0
 30
0.0
  0
LWPOLYLINE
  5
35
330
9
100
AcDbEntity
  8
A--L1---
  6
Continuous
 62
     2
 48
400.0
100
AcDbPolyline
 90
        4
 70
     1
 43
0.0
 10
203.0
 20
185.0
 10
328.0
 20
185.0
 10
328.0
 20
135.0
 10
203.0
 20
135.0
1001
TSA_
1071
        1
1071
       -1
1071
        8
1071
       97
1071
        0
1004

1040
0.0
1071
        2
  0
HATCH
  5
36
330
9
100
AcDbEntity
  8
A--L1---
 62
     5
100
AcDbHatch
 10
0.0
 20
0.0
 30
0.0
210
0.0
220
0.0
230
1.0
  2
ANSI31
 70
     0
 71
     0
 91
        1
 92
        1
 93
        4
 72
     1
 10
328.0
 20
395.0
 11
328.0
 21
185.0
 72
     1
 10
328.0
 20
185.0
 11
203.0
 21
185.0
 72
     1
 10
203.0
 20
185.0
 11
203.0
 21
395.0
 72
     1
 10
203.0
 20
395.0
 11
328.0
 21
395.0
 97
        0
 75
     0
 76
     1
 52
0.0
 41
13.33333333333333
 77
     0
 78
     1
 53
45.0
 43
0.0
 44
0.0
 45
-29.9341870702305
 46
29.93418707023051
 79
     0
 98
        1
 10
328.0
 20
395.0
1001
TSA_
1071
        1
1071
       -1
1071
        9
1071
      121
1071
        0
1004

1040
0.0
1071
       13
  0
HATCH
  5
37
330
9
100
AcDbEntity
  8
A--L1---
 62
     5
100
AcDbHatch
 10
0.0
 20
0.0
 30
0.0
210
0.0
220
0.0
230
1.0
  2
ANSI31
 70
     0
 71
     0
 91
        1
 92
        1
 93
        4
 72
     1
 10
328.0
 20
395.0
 11
328.0
 21
185.0
 72
     1
 10
328.0
 20
185.0
 11
203.0
 21
185.0
 72
     1
 10
203.0
 20
185.0
 11
203.0
 21
395.0
 72
     1
 10
203.0
 20
395.0
 11
328.0
 21
395.0
 97
        0
 75
     0
 76
     1
 52
90.00001494311726
 41
13.33333333333333
 77
     0
 78
     1
 53
135.0000149431172
 43
0.0
 44
0.0
 45
-29.93417926319604
 46
-29.93419487726294
 79
     0
 98
        1
 10
328.0
 20
395.0
1001
TSA_
1071
        1
1071
       -1
1071
        9
1071
      121
1071
        0
1004

1040
0.0
1071
       20
  0
INSERT
  5
38
330
9
100
AcDbEntity
  8
A--L1---
100
AcDbBlockReference
  2
B2DUM$2
 10
328.0
 20
395.0
 30
0.0
  0
LWPOLYLINE
  5
39
330
9
100
AcDbEntity
  8
A--L1---
  6
Continuous
 62
     1
 48
400.0
100
AcDbPolyline
 90
        4
 70
     0
 43
0.0
 10
328.0
 20
395.0
 10
328.0
 20
185.0
 10
203.0
 20
185.0
 10
203.0
 20
395.0
1001
TSA_
1071
        1
1071
       -1
1071
        8
1071
      121
1071
        0
1004

1040
0.0
1071
       10
  0
LWPOLYLINE
  5
3A
330
9
100
AcDbEntity
  8
A--L1---
  6
DASHED2
 62
     2
 48
400.0
100
AcDbPolyline
 90
        2
 70
     0
 43
0.0
 10
202.0
 20
95.0
 10
202.0
 20
395.0
1001
TSA_
1071
        1
1071
       -1
1071
        8
1071
      113
1071
        0
1004

1040
0.0
1071
       17
  0
HATCH
  5
3C
330
9
100
AcDbEntity
  8
A--L1---
 62
     5
100
AcDbHatch
 10
0.0
 20
0.0
 30
0.0
210
0.0
220
0.0
230
1.0
  2
ANSI31
 70
     0
 71
     0
 91
        1
 92
        1
 93
       14
 72
     1
 10
274.0
 20
78.0
 11
294.0
 21
78.0
 72
     1
 10
294.0
 20
78.0
 11
294.0
 21
68.0
 72
     1
 10
294.0
 20
68.0
 11
333.0
 21
68.0
 72
     1
 10
333.0
 20
68.0
 11
333.0
 21
78.0
 72
     1
 10
333.0
 20
78.0
 11
388.0
 21
78.0
 72
     1
 10
388.0
 20
78.0
 11
388.0
 21
28.0
 72
     1
 10
388.0
 20
28.0
 11
337.0
 21
28.0
 72
     1
 10
337.0
 20
28.0
 11
337.0
 21
11.0
 72
     1
 10
337.0
 20
11.0
 11
287.0
 21
11.0
 72
     1
 10
287.0
 20
11.0
 11
287.0
 21
15.0
 72
     1
 10
287.0
 20
15.0
 11
282.0
 21
15.0
 72
     1
 10
282.0
 20
15.0
 11
279.0
 21
11.0
 72
     1
 10
279.0
 20
11.0
 11
274.0
 21
11.0
 72
     1
 10
274.0
 20
11.0
 11
274.0
 21
78.0
 97
        0
 75
     0
 76
     1
 52
90.00001494311726
 41
10.0
 77
     0
 78
     1
 53
135.0000149431172
 43
0.0
 44
0.0
 45
-22.45063444739702
 46
-22.4506461579472
 79
     0
 98
        1
 10
274.0
 20
78.0
1001
TSA_
1071
        1
1071
       -1
1071
        9
1071
      121
1071
        0
1004

1040
0.0
1071
       49
  0
HATCH
  5
3D
330
9
100
AcDbEntity
  8
A--L1---
 62
     5
100
AcDbHatch
 10
0.0
 20
0.0
 30
0.0
210
0.0
220
0.0
230
1.0
  2
ANSI31
 70
     0
 71
     0
 91
        1
 92
        1
 93
       14
 72
     1
 10
274.0
 20
78.0
 11
294.0
 21
78.0
 72
     1
 10
294.0
 20
78.0
 11
294.0
 21
68.0
 72
     1
 10
294.0
 20
68.0
 11
333.0
 21
68.0
 72
     1
 10
333.0
 20
68.0
 11
333.0
 21
78.0
 72
     1
 10
333.0
 20
78.0
 11
388.0
 21
78.0
 72
     1
 10
388.0
 20
78.0
 11
388.0
 21
28.0
 72
     1
 10
388.0
 20
28.0
 11
337.0
 21
28.0
 72
     1
 10
337.0
 20
28.0
 11
337.0
 21
11.0
 72
     1
 10
337.0
 20
11.0
 11
287.0
 21
11.0
 72
     1
 10
287.0
 20
11.0
 11
287.0
 21
15.0
 72
     1
 10
287.0
 20
15.0
 11
282.0
 21
15.0
 72
     1
 10
282.0
 20
15.0
 11
279.0
 21
11.0
 72
     1
 10
279.0
 20
11.0
 11
274.0
 21
11.0
 72
     1
 10
274.0
 20
11.0
 11
274.0
 21
78.0
 97
        0
 75
     0
 76
     1
 52
0.0
 41
10.0
 77
     0
 78
     1
 53
45.0
 43
0.0
 44
0.0
 45
-22.45064030267287
 46
22.45064030267288
 79
     0
 98
        1
 10
274.0
 20
78.0
1001
TSA_
1071
        1
1071
       -1
1071
        9
1071
      121
1071
        0
1004

1040
0.0
1071
       26
  0
INSERT
  5
3E
330
9
100
AcDbEntity
  8
A--L1---
100
AcDbBlockReference
  2
B2DUM$2
 10
274.0
 20
78.0
 30
0.0
  0
LWPOLYLINE
  5
3F
330
9
100
AcDbEntity
  8
A--L1---
  6
Continuous
 62
     2
 48
400.0
100
AcDbPolyline
 90
       14
 70
     1
 43
0.0
 10
274.0
 20
78.0
 10
294.0
 20
78.0
 10
294.0
 20
68.0
 10
333.0
 20
68.0
 10
333.0
 20
78.0
 10
388.0
 20
78.0
 10
388.0
 20
28.0
 10
337.0
 20
28.0
 10
337.0
 20
11.0
 10
287.0
 20
11.0
 10
287.0
 20
15.0
 10
282.0
 20
15.0
 10
279.0
 20
11.0
 10
274.0
 20
11.0
1001
TSA_
1071
        1
1071
       -1
1071
        8
1071
       97
1071
        0
1004

1040
0.0
1071
        2
  0
LWPOLYLINE
  5
40
330
9
100
AcDbEntity
  8
A--L1---
  6
DASHDOT2
 62
     2
 48
400.0
100
AcDbPolyline
 90
        2
 70
     0
 43
0.0
 10
463.0
 20
395.0
 10
114.0
 20
395.0
1001
TSA_
1071
        1
1071
       -1
1071
        8
1071
      255
1071
        0
1004

1040
0.0
1071
       32
  0
HATCH
  5
42
330
9
100
AcDbEntity
  8
A--L1---
 62
     5
100
AcDbHatch
 10
0.0
 20
0.0
 30
0.0
210
0.0
220
0.0
230
1.0
  2
ANSI31
 70
     0
 71
     0
 91
        1
 92
        1
 93
        4
 72
     1
 10
338.0
 20
95.0
 11
333.0
 21
95.0
 72
     1
 10
333.0
 20
95.0
 11
333.0
 21
115.0
 72
     1
 10
333.0
 20
115.0
 11
338.0
 21
115.0
 72
     1
 10
338.0
 20
115.0
 11
338.0
 21
95.0
 97
        0
 75
     0
 76
     1
 52
135.0000224146759
 41
1.0
 77
     0
 78
     1
 53
180.0000224146759
 43
0.0
 44
0.0
 45
0.0000012420914164
 46
-3.174999999999756
 79
     0
 98
        1
 10
338.0
 20
95.0
1001
TSA_
1071
        1
1071
       -1
1071
        9
1071
       97
1071
        0
1004

1040
0.0
1071
       71
  0
HATCH
  5
43
330
9
100
AcDbEntity
  8
A--L1---
 62
     5
100
AcDbHatch
 10
0.0
 20
0.0
 30
0.0
210
0.0
220
0.0
230
1.0
  2
ANSI31
 70
     0
 71
     0
 91
        1
 92
        1
 93
        4
 72
     1
 10
338.0
 20
95.0
 11
333.0
 21
95.0
 72
     1
 10
333.0
 20
95.0
 11
333.0
 21
115.0
 72
     1
 10
333.0
 20
115.0
 11
338.0
 21
115.0
 72
     1
 10
338.0
 20
115.0
 11
338.0
 21
95.0
 97
        0
 75
     0
 76
     1
 52
45.00000747155863
 41
1.0
 77
     0
 78
     1
 53
90.00000747155864
 43
0.0
 44
0.0
 45
-3.174999999999972
 46
-0.0000004140304721
 79
     0
 98
        1
 10
338.0
 20
95.0
1001
TSA_
1071
        1
1071
       -1
1071
        9
1071
       97
1071
        0
1004

1040
0.0
1071
       76
  0
INSERT
  5
44
330
9
100
AcDbEntity
  8
A--L1---
100
AcDbBlockReference
  2
B2DUM$2
 10
338.0
 20
95.0
 30
0.0
  0
LWPOLYLINE
  5
45
330
9
100
AcDbEntity
  8
A--L1---
  6
Continuous
 62
     1
 48
400.0
100
AcDbPolyline
 90
        4
 70
     1
 43
0.0
 10
338.0
 20
95.0
 10
333.0
 20
95.0
 10
333.0
 20
115.0
 10
338.0
 20
115.0
1001
TSA_
1071
        1
1071
       -1
1071
        8
1071
       97
1071
        0
1004

1040
0.0
1071
       10
  0
HATCH
  5
46
330
9
100
AcDbEntity
  8
A--L1---
 62
     5
100
AcDbHatch
 10
0.0
 20
0.0
 30
0.0
210
0.0
220
0.0
230
1.0
  2
ANSI31
 70
     0
 71
     0
 91
        1
 92
        1
 93
        4
 72
     1
 10
333.0
 20
125.0
 11
333.0
 21
68.0
 72
     1
 10
333.0
 20
68.0
 11
294.0
 21
68.0
 72
     1
 10
294.0
 20
68.0
 11
294.0
 21
125.0
 72
     1
 10
294.0
 20
125.0
 11
333.0
 21
125.0
 97
        0
 75
     0
 76
     1
 52
90.00001494311726
 41
10.0
 77
     0
 78
     1
 53
135.0000149431172
 43
0.0
 44
0.0
 45
-22.45063444739702
 46
-22.4506461579472
 79
     0
 98
        1
 10
333.0
 20
125.0
1001
TSA_
1071
        1
1071
       -1
1071
        9
1071
      121
1071
        0
1004

1040
0.0
1071
       49
  0
INSERT
  5
47
330
9
100
AcDbEntity
  8
A--L1---
100
AcDbBlockReference
  2
B2DUM$2
 10
333.0
 20
125.0
 30
0.0
  0
LWPOLYLINE
  5
48
330
9
100
AcDbEntity
  8
A--L1---
  6
Continuous
 62
     2
 48
400.0
100
AcDbPolyline
 90
        4
 70
     1
 43
0.0
 10
333.0
 20
125.0
 10
333.0
 20
68.0
 10
294.0
 20
68.0
 10
294.0
 20
125.0
1001
TSA_
1071
        1
1071
       -1
1071
        8
1071
       97
1071
        0
1004

1040
0.0
1071
        2
  0
HATCH
  5
49
330
9
100
AcDbEntity
  8
A--L1---
 62
     5
100
AcDbHatch
 10
0.0
 20
0.0
 30
0.0
210
0.0
220
0.0
230
1.0
  2
ANSI31
 70
     0
 71
     0
 91
        1
 92
        1
 93
        4
 72
     1
 10
388.0
 20
88.0
 11
400.0
 21
88.0
 72
     1
 10
400.0
 20
88.0
 11
400.0
 21
63.0
 72
     1
 10
400.0
 20
63.0
 11
388.0
 21
63.0
 72
     1
 10
388.0
 20
63.0
 11
388.0
 21
88.0
 97
        0
 75
     0
 76
     1
 52
90.00001494311726
 41
10.0
 77
     0
 78
     1
 53
135.0000149431172
 43
0.0
 44
0.0
 45
-22.45063444739702
 46
-22.4506461579472
 79
     0
 98
        1
 10
388.0
 20
88.0
1001
TSA_
1071
        1
1071
       -1
1071
        9
1071
      121
1071
        0
1004

1040
0.0
1071
       49
  0
INSERT
  5
4A
330
9
100
AcDbEntity
  8
A--L1---
100
AcDbBlockReference
  2
B2DUM$2
 10
388.0
 20
88.0
 30
0.0
  0
LWPOLYLINE
  5
4B
330
9
100
AcDbEntity
  8
A--L1---
  6
Continuous
 62
     2
 48
400.0
100
AcDbPolyline
 90
        4
 70
     1
 43
0.0
 10
388.0
 20
88.0
 10
400.0
 20
88.0
 10
400.0
 20
63.0
 10
388.0
 20
63.0
1001
TSA_
1071
        1
1071
       -1
1071
        8
1071
       97
1071
        0
1004

1040
0.0
1071
        2
  0
LWPOLYLINE
  5
4C
330
9
100
AcDbEntity
  8
A--L1---
  6
Continuous
 62
     5
 48
400.0
100
AcDbPolyline
 90
        2
 70
     0
 43
0.0
 10
388.0
 20
28.0
 10
388.0
 20
-58.0
1001
TSA_
1071
        1
1071
       -1
1071
        8
1071
      255
1071
        0
1004

1040
0.0
1071
        5
  0
LWPOLYLINE
  5
4D
330
9
100
AcDbEntity
  8
A--L1---
  6
Continuous
 62
     5
 48
400.0
100
AcDbPolyline
 90
        2
 70
     0
 43
0.0
 10
337.0
 20
11.0
 10
337.0
 20
-58.0
1001
TSA_
1071
        1
1071
       -1
1071
        8
1071
      255
1071
        0
1004

1040
0.0
1071
        5
  0
LWPOLYLINE
  5
4E
330
9
100
AcDbEntity
  8
A--L1---
  6
Continuous
 62
     5
 48
400.0
100
AcDbPolyline
 90
        2
 70
     0
 43
0.0
 10
274.0
 20
11.0
 10
274.0
 20
-58.0
1001
TSA_
1071
        1
1071
       -1
1071
        8
1071
      255
1071
        0
1004

1040
0.0
1071
        5
  0
LWPOLYLINE
  5
4F
330
9
100
AcDbEntity
  8
A--L1---
  6
Continuous
 62
     5
 48
400.0
100
AcDbPolyline
 90
        2
 70
     0
 43
0.0
 10
400.0
 20
63.0
 10
400.0
 20
-58.0
1001
TSA_
1071
        1
1071
       -1
1071
        8
1071
      255
1071
        0
1004

1040
0.0
1071
        5
  0
LWPOLYLINE
  5
50
330
9
100
AcDbEntity
  8
A--L1---
  6
Continuous
 62
     5
 48
400.0
100
AcDbPolyline
 90
        2
 70
     0
 43
0.0
 10
438.0
 20
88.0
 10
438.0
 20
-58.0
1001
TSA_
1071
        1
1071
       -1
1071
        8
1071
      255
1071
        0
1004

1040
0.0
1071
        5
  0
HATCH
  5
51
330
9
100
AcDbEntity
  8
A--L1---
 62
     5
100
AcDbHatch
 10
0.0
 20
0.0
 30
0.0
210
0.0
220
0.0
230
1.0
  2
ANSI31
 70
     0
 71
     0
 91
        1
 92
        1
 93
        4
 72
     1
 10
294.0
 20
125.0
 11
288.0
 21
135.0
 72
     1
 10
288.0
 20
135.0
 11
338.0
 21
135.0
 72
     1
 10
338.0
 20
135.0
 11
338.0
 21
125.0
 72
     1
 10
338.0
 20
125.0
 11
294.0
 21
125.0
 97
        0
 75
     0
 76
     1
 52
0.0
 41
13.33333333333333
 77
     0
 78
     1
 53
45.0
 43
0.0
 44
0.0
 45
-29.9341870702305
 46
29.93418707023051
 79
     0
 98
        1
 10
294.0
 20
125.0
1001
TSA_
1071
        1
1071
       -1
1071
        9
1071
      121
1071
        0
1004

1040
0.0
1071
       13
  0
HATCH
  5
52
330
9
100
AcDbEntity
  8
A--L1---
 62
     5
100
AcDbHatch
 10
0.0
 20
0.0
 30
0.0
210
0.0
220
0.0
230
1.0
  2
ANSI31
 70
     0
 71
     0
 91
        1
 92
        1
 93
        4
 72
     1
 10
294.0
 20
125.0
 11
288.0
 21
135.0
 72
     1
 10
288.0
 20
135.0
 11
338.0
 21
135.0
 72
     1
 10
338.0
 20
135.0
 11
338.0
 21
125.0
 72
     1
 10
338.0
 20
125.0
 11
294.0
 21
125.0
 97
        0
 75
     0
 76
     1
 52
90.00001494311726
 41
13.33333333333333
 77
     0
 78
     1
 53
135.0000149431172
 43
0.0
 44
0.0
 45
-29.93417926319604
 46
-29.93419487726294
 79
     0
 98
        1
 10
294.0
 20
125.0
1001
TSA_
1071
        1
1071
       -1
1071
        9
1071
      121
1071
        0
1004

1040
0.0
1071
       20
  0
INSERT
  5
53
330
9
100
AcDbEntity
  8
A--L1---
100
AcDbBlockReference
  2
B2DUM$2
 10
294.0
 20
125.0
 30
0.0
  0
LWPOLYLINE
  5
54
330
9
100
AcDbEntity
  8
A--L1---
  6
Continuous
 62
     1
 48
400.0
100
AcDbPolyline
 90
        4
 70
     1
 43
0.0
 10
294.0
 20
125.0
 10
288.0
 20
135.0
 10
338.0
 20
135.0
 10
338.0
 20
125.0
1001
TSA_
1071
        1
1071
       -1
1071
        8
1071
      121
1071
        0
1004

1040
0.0
1071
       10
  0
LWPOLYLINE
  5
55
330
9
100
AcDbEntity
  8
A--L1---
  6
Continuous
 62
     1
 48
400.0
100
AcDbPolyline
 90
        4
 70
     0
 43
0.0
 10
203.0
 20
135.0
 10
203.0
 20
130.0
 10
169.0
 20
130.0
 10
169.0
 20
395.0
1001
TSA_
1071
        1
1071
       -1
1071
        8
1071
      255
1071
        0
1004

1040
0.0
1071
        1
  0
HATCH
  5
56
330
9
100
AcDbEntity
  8
A--L1---
 62
     5
100
AcDbHatch
 10
0.0
 20
0.0
 30
0.0
210
0.0
220
0.0
230
1.0
  2
ANSI31
 70
     0
 71
     0
 91
        1
 92
        1
 93
        4
 72
     1
 10
294.0
 20
78.0
 11
205.0
 21
78.0
 72
     1
 10
205.0
 20
78.0
 11
205.0
 21
122.0
 72
     1
 10
205.0
 20
122.0
 11
294.0
 21
122.0
 72
     1
 10
294.0
 20
122.0
 11
294.0
 21
78.0
 97
        0
 75
     0
 76
     1
 52
90.00001494311726
 41
10.0
 77
     0
 78
     1
 53
135.0000149431172
 43
0.0
 44
0.0
 45
-22.45063444739702
 46
-22.4506461579472
 79
     0
 98
        1
 10
294.0
 20
78.0
1001
TSA_
1071
        1
1071
       -1
1071
        9
1071
      121
1071
        0
1004

1040
0.0
1071
       49
  0
INSERT
  5
57
330
9
100
AcDbEntity
  8
A--L1---
100
AcDbBlockReference
  2
B2DUM$2
 10
294.0
 20
78.0
 30
0.0
  0
LWPOLYLINE
  5
58
330
9
100
AcDbEntity
  8
A--L1---
  6
Continuous
 62
     2
 48
400.0
100
AcDbPolyline
 90
        4
 70
     1
 43
0.0
 10
294.0
 20
78.0
 10
205.0
 20
78.0
 10
205.0
 20
122.0
 10
294.0
 20
122.0
1001
TSA_
1071
        1
1071
       -1
1071
        8
1071
       97
1071
        0
1004

1040
0.0
1071
        2
  0
LWPOLYLINE
  5
59
330
9
100
AcDbEntity
  8
A--L1---
  6
Continuous
 62
     5
 48
400.0
100
AcDbPolyline
 90
        6
 70
     1
 43
0.0
 10
263.0
 20
73.0
 10
243.0
 20
73.0
 10
243.0
 20
78.0
 10
263.0
 20
78.0
 10
243.0
 20
73.0
 10
243.0
 20
78.0
1001
TSA_
1071
        1
1071
       -1
1071
        8
1071
      255
1071
        0
1004

1040
0.0
1071
        5
  0
LWPOLYLINE
  5
5A
330
9
100
AcDbEntity
  8
A--L1---
  6
Continuous
 62
     5
 48
400.0
100
AcDbPolyline
 90
        2
 70
     0
 43
0.0
 10
263.0
 20
73.0
 10
263.0
 20
78.0
1001
TSA_
1071
        1
1071
       -1
1071
        8
1071
      255
1071
        0
1004

1040
0.0
1071
        5
  0
LWPOLYLINE
  5
5B
330
9
100
AcDbEntity
  8
A--L1---
  6
DASHDOT2
 62
     2
 48
400.0
100
AcDbPolyline
 90
        2
 70
     0
 43
0.0
 10
463.0
 20
-58.0
 10
115.0
 20
-58.0
1001
TSA_
1071
        1
1071
       -1
1071
        8
1071
      255
1071
        0
1004

1040
0.0
1071
       32
  0
LWPOLYLINE
  5
5C
330
9
100
AcDbEntity
  8
A--L1---
  6
Continuous
 62
     5
 48
400.0
100
AcDbPolyline
 90
        3
 70
     0
 43
0.0
 10
333.0
 20
295.0
 10
90.0
 20
295.0
 10
90.0
 20
210.0
1001
TSA_
1071
        1
1071
       -1
1071
        8
1071
      255
1071
        0
1004

1040
0.0
1071
        5
  0
HATCH
  5
5D
330
9
100
AcDbEntity
  8
A--L1---
 62
     1
100
AcDbHatch
 10
0.0
 20
0.0
 30
0.0
210
0.0
220
0.0
230
1.0
  2
SOLID
 70
     1
 71
     0
 91
        1
 92
        1
 93
        2
 72
     2
 10
333.0
 20
295.0
 40
2.0
 50
359.9999899717977
 51
539.9999899717978
 73
     1
 72
     2
 10
333.0
 20
295.0
 40
2.0
 50
179.9999899717978
 51
359.9999899717977
 73
     1
 97
        0
 75
     0
 76
     1
 98
        1
 10
333.0
 20
295.0
1001
TSA_
1071
        1
1071
       -1
1071
        9
1071
      125
1071
        0
1004

1040
0.0
1071
       34
  0
INSERT
  5
5E
330
9
100
AcDbEntity
  8
A--L1---
100
AcDbBlockReference
  2
B2DUM$2
 10
333.0
 20
295.0
 30
0.0
  0
LWPOLYLINE
  5
5F
330
9
100
AcDbEntity
  8
A--L1---
  6
Continuous
 62
     2
 48
400.0
100
AcDbPolyline
 90
        2
 70
     1
 43
0.0
 10
335.0
 20
295.0
 42
1.0
 10
331.0
 20
295.0
 42
1.0
1001
TSA_
1071
        1
1071
       -1
1071
        8
1071
      125
1071
        0
1004

1040
0.0
1071
        7
  0
LWPOLYLINE
  5
60
330
9
100
AcDbEntity
  8
A--L1---
  6
Continuous
 62
     5
 48
400.0
100
AcDbPolyline
 90
        2
 70
     0
 43
0.0
 10
167.386719
 20
85.419434
 10
-85.0
 20
85.419434
1001
TSA_
1071
        1
1071
       -1
1071
        8
1071
      255
1071
        0
1004

1040
0.0
1071
        5
  0
HATCH
  5
61
330
9
100
AcDbEntity
  8
A--L1---
 62
     1
100
AcDbHatch
 10
0.0
 20
0.0
 30
0.0
210
0.0
220
0.0
230
1.0
  2
SOLID
 70
     1
 71
     0
 91
        1
 92
        1
 93
        2
 72
     2
 10
167.3867187499999
 20
85.41943359375
 40
2.0
 50
359.9999899717977
 51
539.9999899717978
 73
     1
 72
     2
 10
167.3867187499999
 20
85.41943359375
 40
2.0
 50
179.9999899717978
 51
359.9999899717977
 73
     1
 97
        0
 75
     0
 76
     1
 98
        1
 10
167.3867187499999
 20
85.41943359375
1001
TSA_
1071
        1
1071
       -1
1071
        9
1071
      125
1071
        0
1004

1040
0.0
1071
       34
  0
INSERT
  5
62
330
9
100
AcDbEntity
  8
A--L1---
100
AcDbBlockReference
  2
B2DUM$2
 10
167.386719
 20
85.419434
 30
0.0
  0
LWPOLYLINE
  5
63
330
9
100
AcDbEntity
  8
A--L1---
  6
Continuous
 62
     2
 48
400.0
100
AcDbPolyline
 90
        2
 70
     1
 43
0.0
 10
169.386719
 20
85.419433
 42
1.0
 10
165.386719
 20
85.419434
 42
1.0
1001
TSA_
1071
        1
1071
       -1
1071
        8
1071
      125
1071
        0
1004

1040
0.0
1071
        7
  0
LWPOLYLINE
  5
64
330
9
100
AcDbEntity
  8
A--L1---
  6
Continuous
 62
     5
 48
400.0
100
AcDbPolyline
 90
        3
 70
     0
 43
0.0
 10
253.0
 20
65.0
 10
253.0
 20
-10.0
 10
75.0
 20
-10.0
1001
TSA_
1071
        1
1071
       -1
1071
        8
1071
      255
1071
        0
1004

1040
0.0
1071
        5
  0
HATCH
  5
65
330
9
100
AcDbEntity
  8
A--L1---
 62
     1
100
AcDbHatch
 10
0.0
 20
0.0
 30
0.0
210
0.0
220
0.0
230
1.0
  2
SOLID
 70
     1
 71
     0
 91
        1
 92
        1
 93
        2
 72
     2
 10
253.0
 20
65.0
 40
2.0
 50
359.9999899717977
 51
539.9999899717978
 73
     1
 72
     2
 10
253.0
 20
65.0
 40
2.0
 50
179.9999899717978
 51
359.9999899717977
 73
     1
 97
        0
 75
     0
 76
     1
 98
        1
 10
253.0
 20
65.0
1001
TSA_
1071
        1
1071
       -1
1071
        9
1071
      125
1071
        0
1004

1040
0.0
1071
       34
  0
INSERT
  5
66
330
9
100
AcDbEntity
  8
A--L1---
100
AcDbBlockReference
  2
B2DUM$2
 10
253.0
 20
65.0
 30
0.0
  0
LWPOLYLINE
  5
67
330
9
100
AcDbEntity
  8
A--L1---
  6
Continuous
 62
     2
 48
400.0
100
AcDbPolyline
 90
        2
 70
     1
 43
0.0
 10
255.0
 20
65.0
 42
1.0
 10
251.0
 20
65.0
 42
1.0
1001
TSA_
1071
        1
1071
       -1
1071
        8
1071
      125
1071
        0
1004

1040
0.0
1071
        7
  0
LWPOLYLINE
  5
68
330
9
100
AcDbEntity
  8
A--L1---
  6
Continuous
 62
     5
 48
400.0
100
AcDbPolyline
 90
        3
 70
     0
 43
0.0
 10
185.0
 20
69.0
 10
185.0
 20
20.0
 10
75.0
 20
20.0
1001
TSA_
1071
        1
1071
       -1
1071
        8
1071
      255
1071
        0
1004

1040
0.0
1071
        5
  0
HATCH
  5
69
330
9
100
AcDbEntity
  8
A--L1---
 62
     1
100
AcDbHatch
 10
0.0
 20
0.0
 30
0.0
210
0.0
220
0.0
230
1.0
  2
SOLID
 70
     1
 71
     0
 91
        1
 92
        1
 93
        2
 72
     2
 10
185.0
 20
69.0
 40
2.0
 50
359.9999899717977
 51
539.9999899717978
 73
     1
 72
     2
 10
185.0
 20
69.0
 40
2.0
 50
179.9999899717978
 51
359.9999899717977
 73
     1
 97
        0
 75
     0
 76
     1
 98
        1
 10
185.0
 20
69.0
1001
TSA_
1071
        1
1071
       -1
1071
        9
1071
      125
1071
        0
1004

1040
0.0
1071
       34
  0
INSERT
  5
6A
330
9
100
AcDbEntity
  8
A--L1---
100
AcDbBlockReference
  2
B2DUM$2
 10
185.0
 20
69.0
 30
0.0
  0
LWPOLYLINE
  5
6B
330
9
100
AcDbEntity
  8
A--L1---
  6
Continuous
 62
     2
 48
400.0
100
AcDbPolyline
 90
        2
 70
     1
 43
0.0
 10
187.0
 20
69.0
 42
1.0
 10
183.0
 20
69.0
 42
1.0
1001
TSA_
1071
        1
1071
       -1
1071
        8
1071
      125
1071
        0
1004

1040
0.0
1071
        7
  0
LWPOLYLINE
  5
6C
330
9
100
AcDbEntity
  8
A--L1---
  6
Continuous
 62
     5
 48
400.0
100
AcDbPolyline
 90
        2
 70
     0
 43
0.0
 10
140.0
 20
65.0
 10
140.0
 20
-58.0
1001
TSA_
1071
        1
1071
       -1
1071
        8
1071
      255
1071
        0
1004

1040
0.0
1071
        5
  0
LWPOLYLINE
  5
6D
330
9
100
AcDbEntity
  8
A--L1---
  6
Continuous
 62
     5
 48
400.0
100
AcDbPolyline
 90
        2
 70
     0
 43
0.0
 10
268.0
 20
65.0
 10
268.0
 20
-58.0
1001
TSA_
1071
        1
1071
       -1
1071
        8
1071
      255
1071
        0
1004

1040
0.0
1071
        5
  0
HATCH
  5
6E
330
9
100
AcDbEntity
  8
A--L1---
 62
     5
100
AcDbHatch
 10
0.0
 20
0.0
 30
0.0
210
0.0
220
0.0
230
1.0
  2
ANSI31
 70
     0
 71
     0
 91
        1
 92
        1
 93
        4
 72
     1
 10
169.0
 20
130.0
 11
166.0
 21
130.0
 72
     1
 10
166.0
 20
130.0
 11
166.0
 21
395.0
 72
     1
 10
166.0
 20
395.0
 11
169.0
 21
395.0
 72
     1
 10
169.0
 20
395.0
 11
169.0
 21
130.0
 97
        0
 75
     0
 76
     1
 52
135.0000224146759
 41
1.0
 77
     0
 78
     1
 53
180.0000224146759
 43
0.0
 44
0.0
 45
0.0000012420914164
 46
-3.174999999999756
 79
     0
 98
        1
 10
169.0
 20
130.0
1001
TSA_
1071
        1
1071
       -1
1071
        9
1071
       97
1071
        0
1004

1040
0.0
1071
       71
  0
HATCH
  5
6F
330
9
100
AcDbEntity
  8
A--L1---
 62
     5
100
AcDbHatch
 10
0.0
 20
0.0
 30
0.0
210
0.0
220
0.0
230
1.0
  2
ANSI31
 70
     0
 71
     0
 91
        1
 92
        1
 93
        4
 72
     1
 10
169.0
 20
130.0
 11
166.0
 21
130.0
 72
     1
 10
166.0
 20
130.0
 11
166.0
 21
395.0
 72
     1
 10
166.0
 20
395.0
 11
169.0
 21
395.0
 72
     1
 10
169.0
 20
395.0
 11
169.0
 21
130.0
 97
        0
 75
     0
 76
     1
 52
45.00000747155863
 41
1.0
 77
     0
 78
     1
 53
90.00000747155864
 43
0.0
 44
0.0
 45
-3.174999999999972
 46
-0.0000004140304721
 79
     0
 98
        1
 10
169.0
 20
130.0
1001
TSA_
1071
        1
1071
       -1
1071
        9
1071
       97
1071
        0
1004

1040
0.0
1071
       76
  0
INSERT
  5
70
330
9
100
AcDbEntity
  8
A--L1---
100
AcDbBlockReference
  2
B2DUM$2
 10
169.0
 20
130.0
 30
0.0
  0
LWPOLYLINE
  5
71
330
9
100
AcDbEntity
  8
A--L1---
  6
Continuous
 62
     1
 48
400.0
100
AcDbPolyline
 90
        4
 70
     1
 43
0.0
 10
169.0
 20
130.0
 10
166.0
 20
130.0
 10
166.0
 20
395.0
 10
169.0
 20
395.0
1001
TSA_
1071
        1
1071
       -1
1071
        8
1071
       97
1071
        0
1004

1040
0.0
1071
       10
  0
HATCH
  5
72
330
9
100
AcDbEntity
  8
A--L1---
 62
     5
100
AcDbHatch
 10
0.0
 20
0.0
 30
0.0
210
0.0
220
0.0
230
1.0
  2
ANSI31
 70
     0
 71
     0
 91
        1
 92
        1
 93
        4
 72
     1
 10
164.0066528320312
 20
394.9999389648437
 11
147.1042175292968
 21
101.828369140625
 72
     1
 10
147.1042175292968
 20
101.828369140625
 11
139.1174621582031
 21
102.288818359375
 72
     1
 10
139.1174621582031
 20
102.288818359375
 11
155.9933471679687
 21
394.9999389648437
 72
     1
 10
155.9933471679687
 20
394.9999389648437
 11
164.0066528320312
 21
394.9999389648437
 97
        0
 75
     0
 76
     1
 52
45.00000747155863
 41
10.66666666666666
 77
     0
 78
     1
 53
90.00000747155864
 43
0.0
 44
0.0
 45
-33.86666666666637
 46
-0.0000044163250372
 79
     0
 98
        1
 10
164.0066528320312
 20
394.9999389648437
1001
TSA_
1071
        1
1071
       -1
1071
        9
1071
      113
1071
        0
1004

1040
0.0
1071
       29
  0
INSERT
  5
73
330
9
100
AcDbEntity
  8
A--L1---
100
AcDbBlockReference
  2
B2DUM$2
 10
164.006653
 20
394.999939
 30
0.0
  0
LWPOLYLINE
  5
74
330
9
100
AcDbEntity
  8
A--L1---
  6
Continuous
 62
     1
 48
400.0
100
AcDbPolyline
 90
        4
 70
     0
 43
0.0
 10
164.006653
 20
394.999939
 10
147.104218
 20
101.828369
 10
139.117462
 20
102.288818
 10
155.993347
 20
394.999939
1001
TSA_
1071
        1
1071
       -1
1071
        8
1071
      125
1071
        0
1004

1040
0.0
1071
       10
  0
HATCH
  5
75
330
9
100
AcDbEntity
  8
A--L1---
 62
     1
100
AcDbHatch
 10
0.0
 20
0.0
 30
0.0
210
0.0
220
0.0
230
1.0
  2
ANSI31
 70
     0
 71
     0
 91
        1
 92
        1
 93
        4
 72
     1
 10
438.0
 20
395.0
 11
438.0
 21
88.0
 72
     1
 10
438.0
 20
88.0
 11
338.0
 21
88.0
 72
     1
 10
338.0
 20
88.0
 11
338.0
 21
395.0
 72
     1
 10
338.0
 20
395.0
 11
438.0
 21
395.0
 97
        0
 75
     0
 76
     1
 52
0.0
 41
25.33333333333333
 77
     0
 78
     1
 53
45.0
 43
0.0
 44
0.0
 45
-56.87495543343796
 46
56.87495543343796
 79
     0
 98
        1
 10
438.0
 20
395.0
1001
TSA_
1071
        1
1071
       -1
1071
        9
1071
      125
1071
        0
1004

1040
0.0
1071
       12
  0
HATCH
  5
76
330
9
100
AcDbEntity
  8
A--L1---
 62
     5
100
AcDbHatch
 10
0.0
 20
0.0
 30
0.0
210
0.0
220
0.0
230
1.0
  2
SOLID
 70
     1
 71
     0
 91
        1
 92
        1
 93
        4
 72
     1
 10
438.0
 20
395.0
 11
438.0
 21
88.0
 72
     1
 10
438.0
 20
88.0
 11
338.0
 21
88.0
 72
     1
 10
338.0
 20
88.0
 11
338.0
 21
395.0
 72
     1
 10
338.0
 20
395.0
 11
438.0
 21
395.0
 97
        0
 75
     0
 76
     1
 98
        1
 10
438.0
 20
395.0
1001
TSA_
1071
        1
1071
       -1
1071
        9
1071
      125
1071
        0
1004

1040
0.0
1071
       33
  0
INSERT
  5
77
330
9
100
AcDbEntity
  8
A--L1---
100
AcDbBlockReference
  2
B2DUM$2
 10
438.0
 20
395.0
 30
0.0
  0
LWPOLYLINE
  5
78
330
9
100
AcDbEntity
  8
A--L1---
  6
Continuous
 62
     2
 48
400.0
100
AcDbPolyline
 90
        4
 70
     0
 43
0.0
 10
438.0
 20
395.0
 10
438.0
 20
88.0
 10
338.0
 20
88.0
 10
338.0
 20
395.0
1001
TSA_
1071
        1
1071
       -1
1071
        8
1071
      125
1071
        0
1004

1040
0.0
1071
        7
  0
HATCH
  5
79
330
9
100
AcDbEntity
  8
A--L1---
 62
     3
100
AcDbHatch
 10
0.0
 20
0.0
 30
0.0
210
0.0
220
0.0
230
1.0
  2
SOLID
 70
     1
 71
     0
 91
        1
 92
        1
 93
        4
 72
     1
 10
438.0
 20
395.0
 11
438.0
 21
88.0
 72
     1
 10
438.0
 20
88.0
 11
338.0
 21
88.0
 72
     1
 10
338.0
 20
88.0
 11
338.0
 21
395.0
 72
     1
 10
338.0
 20
395.0
 11
438.0
 21
395.0
 97
        0
 75
     0
 76
     1
 98
        1
 10
438.0
 20
395.0
1001
TSA_
1071
        1
1071
       -1
1071
        9
1071
      127
1071
        0
1004

1040
0.0
1071
       11
  0
HATCH
  5
7A
330
9
100
AcDbEntity
  8
A--L1---
 62
     5
100
AcDbHatch
 10
0.0
 20
0.0
 30
0.0
210
0.0
220
0.0
230
1.0
  2
ANSI31
 70
     0
 71
     0
 91
        1
 92
        1
 93
        4
 72
     1
 10
140.0
 20
65.0
 11
140.0
 21
73.0
 72
     1
 10
140.0
 20
73.0
 11
268.0
 21
73.0
 72
     1
 10
268.0
 20
73.0
 11
268.0
 21
65.0
 72
     1
 10
268.0
 20
65.0
 11
140.0
 21
65.0
 97
        0
 75
     0
 76
     1
 52
45.00000747155863
 41
10.66666666666666
 77
     0
 78
     1
 53
90.00000747155864
 43
0.0
 44
0.0
 45
-33.86666666666637
 46
-0.0000044163250372
 79
     0
 98
        1
 10
140.0
 20
65.0
1001
TSA_
1071
        1
1071
       -1
1071
        9
1071
      113
1071
        0
1004

1040
0.0
1071
       29
  0
INSERT
  5
7B
330
9
100
AcDbEntity
  8
A--L1---
100
AcDbBlockReference
  2
B2DUM$2
 10
140.0
 20
65.0
 30
0.0
  0
LWPOLYLINE
  5
7C
330
9
100
AcDbEntity
  8
A--L1---
  6
Continuous
 62
     1
 48
400.0
100
AcDbPolyline
 90
        4
 70
     1
 43
0.0
 10
140.0
 20
65.0
 10
140.0
 20
73.0
 10
268.0
 20
73.0
 10
268.0
 20
65.0
1001
TSA_
1071
        1
1071
       -1
1071
        8
1071
      125
1071
        0
1004

1040
0.0
1071
       10
  0
ENDBLK
  5
7E
330
9
100
AcDbEntity
  8
0
100
AcDbBlockEnd
  0
BLOCK
  5
15
330
13
100
AcDbEntity
  8
0
100
AcDbBlockBegin
  2
BSCHROEF$2
 70
     0
 10
0.0
 20
0.0
 30
0.0
  3
BSCHROEF$2
  1

  0
LWPOLYLINE
  5
14
330
13
100
AcDbEntity
  8
A--L1---
  6
Continuous
 62
     5
 48
400.0
100
AcDbPolyline
 90
       12
 70
     0
 43
0.0
 10
4.0
 20
2.0
 10
8.0
 20
-2.0
 10
12.0
 20
2.0
 10
16.0
 20
-2.0
 10
20.0
 20
2.0
 10
24.0
 20
-2.0
 10
28.0
 20
2.0
 10
30.0
 20
0.0
 10
0.0
 20
0.0
 10
-2.0
 20
2.5
 10
-2.0
 20
-2.5
 10
0.0
 20
0.0
1001
TSA_
1071
        1
1071
       -1
1071
        8
1071
      255
1071
        0
1004

1040
0.0
1071
        5
  0
ENDBLK
  5
17
330
13
100
AcDbEntity
  8
0
100
AcDbBlockEnd
  0
BLOCK
  5
22
330
1A
100
AcDbEntity
  8
0
100
AcDbBlockBegin
  2
B153070RV$2
 70
     0
 10
0.0
 20
0.0
 30
0.0
  3
B153070RV$2
  1

  0
HATCH
  5
1B
330
1A
100
AcDbEntity
  8
A--L31--
 62
     3
100
AcDbHatch
 10
0.0
 20
0.0
 30
0.0
210
0.0
220
0.0
230
1.0
  2
SOLID
 70
     1
 71
     0
 91
        1
 92
        1
 93
       13
 72
     1
 10
0.349853515625
 20
0.500732421875
 11
-0.0001220703125
 21
0.15087890625
 72
     1
 10
-0.0001220703125
 20
0.15087890625
 11
0.0
 21
-20.182373046875
 72
     1
 10
0.0
 20
-20.182373046875
 11
-69.1737060546875
 21
-32.379638671875
 72
     2
 10
-69.00012207031247
 20
-33.36450195312503
 40
1.000043540245164
 50
99.99582558668393
 51
180.0000050089546
 73
     1
 72
     1
 10
-70.00016561055763
 20
-33.36450204055158
 11
-70.0
 21
-44.579345703125
 72
     2
 10
-71.0999755859375
 20
-44.579345703125
 40
1.0999755859375
 50
360.0
 51
539.9999913485778
 73
     0
 72
     1
 10
-72.19995117187498
 20
-44.57934586921669
 11
-72.2000732421875
 21
-32.357421875
 72
     2
 10
-70.20007324218749
 20
-32.35742187500001
 40
2.000000000000014
 50
180.0000000000004
 51
260.0007303242169
 73
     0
 72
     1
 10
-70.54734449166659
 20
-30.38780194230099
 11
-4.67919921875
 21
-18.7734375
 72
     2
 10
-5.2000732421875
 20
-15.81884765625
 40
3.000151811672639
 50
279.9981214524618
 51
360.0000100179126
 73
     1
 72
     1
 10
-2.199921430514907
 20
-15.81884713168677
 11
-2.2000732421875
 21
-0.94970703125
 72
     2
 10
-1.2000732421875
 20
-0.94970703125
 40
1.0
 50
180.0
 51
255.0000961158517
 73
     0
 72
     1
 10
-1.458890666912303
 20
0.0162192292165123
 11
0.349853515625
 21
0.500732421875
 97
        0
 75
     0
 76
     1
 98
        1
 10
0.349853515625
 20
0.500732421875
1001
TSA_
1071
        1
1071
       -1
1071
        9
1071
       97
1071
        0
1004

1040
0.0
1071
       11
  0
INSERT
  5
1C
330
1A
100
AcDbEntity
  8
A--L31--
100
AcDbBlockReference
  2
B2DUM$2
 10
0.349854
 20
0.500732
 30
0.0
  0
LWPOLYLINE
  5
20
330
1A
100
AcDbEntity
  8
A--L31--
  6
Continuous
 62
     1
 48
400.0
100
AcDbPolyline
 90
       13
 70
     1
 43
0.0
 10
0.349854
 20
0.500732
 10
-0.000122
 20
0.150879
 10
0.0
 20
-20.182373
 10
-69.173706
 20
-32.379639
 42
0.363991
 10
-70.000166
 20
-33.364502
 10
-70.0
 20
-44.579346
 42
-1.0
 10
-72.199951
 20
-44.579346
 10
-72.200073
 20
-32.357422
 42
-0.363974
 10
-70.547344
 20
-30.387802
 10
-4.679199
 20
-18.773438
 42
0.36398
 10
-2.199921
 20
-15.818847
 10
-2.200073
 20
-0.949707
 42
-0.339455
 10
-1.458891
 20
0.016219
1001
TSA_
1071
        1
1071
       -1
1071
        8
1071
      113
1071
        0
1004

1040
0.0
1071
       10
  0
LWPOLYLINE
  5
21
330
1A
100
AcDbEntity
  8
A--L31--
  6
Continuous
 62
     6
 48
400.0
100
AcDbPolyline
 90
        4
 70
     0
 43
0.0
 10
-72.200195
 20
-32.357666
 10
-72.200195
 20
-13.971924
 42
-0.363963
 10
-70.547543
 20
-12.002317
 10
0.349854
 20
0.500732
1001
TSA_
1071
        1
1071
       -1
1071
        8
1071
       97
1071
        0
1004

1040
0.0
1071
        6
  0
ENDBLK
  5
23
330
1A
100
AcDbEntity
  8
0
100
AcDbBlockEnd
  0
BLOCK
  5
1E
330
1D
100
AcDbEntity
  8
0
100
AcDbBlockBegin
  2
B2DUM$2
 70
     0
 10
0.0
 20
0.0
 30
0.0
  3
B2DUM$2
  1

  0
ENDBLK
  5
1F
330
1D
100
AcDbEntity
  8
0
100
AcDbBlockEnd
  0
BLOCK
  5
29
330
25
100
AcDbEntity
  8
0
100
AcDbBlockBegin
  2
BBOLBENAM$2
 70
     0
 10
0.0
 20
0.0
 30
0.0
  3
BBOLBENAM$2
  1

  0
HATCH
  5
26
330
25
100
AcDbEntity
  8
A--L1---
 62
     1
100
AcDbHatch
 10
0.0
 20
0.0
 30
0.0
210
0.0
220
0.0
230
1.0
  2
SOLID
 70
     1
 71
     0
 91
        1
 92
        1
 93
        2
 72
     2
 10
0.0
 20
0.0
 40
2.0
 50
359.9999899717977
 51
539.9999899717978
 73
     1
 72
     2
 10
0.0
 20
0.0
 40
2.0
 50
179.9999899717978
 51
359.9999899717977
 73
     1
 97
        0
 75
     0
 76
     1
 98
        1
 10
1.999999999999969
 20
-0.0000003500502928
1001
TSA_
1071
        1
1071
       -1
1071
        9
1071
      125
1071
        0
1004

1040
0.0
1071
       34
  0
INSERT
  5
27
330
25
100
AcDbEntity
  8
A--L1---
100
AcDbBlockReference
  2
B2DUM$2
 10
2.0
 20
0.0
 30
0.0
  0
LWPOLYLINE
  5
28
330
25
100
AcDbEntity
  8
A--L1---
  6
Continuous
 62
     2
 48
400.0
100
AcDbPolyline
 90
        2
 70
     1
 43
0.0
 10
2.0
 20
0.0
 42
1.0
 10
-2.0
 20
0.0
 42
1.0
1001
TSA_
1071
        1
1071
       -1
1071
        8
1071
      125
1071
        0
1004

1040
0.0
1071
        7
  0
ENDBLK
  5
2A
330
25
100
AcDbEntity
  8
0
100
AcDbBlockEnd
  0
ENDSEC
  0
SECTION
  2
ENTITIES
  0
INSERT
  5
3
330
2
100
AcDbEntity
  8
A--L1---
100
AcDbBlockReference
  2
BDET1-359$2
 10
335.0
 20
607.5
 30
0.0
  0
LWPOLYLINE
  5
7F
330
2
100
AcDbEntity
  8
A--L107-
  6
Continuous
 62
     1
 48
400.0
100
AcDbPolyline
 90
        2
 70
     0
 43
0.0
 10
1000.0
 20
295.0
 10
100.0
 20
295.0
1001
TSA_
1071
        1
1071
        2
1071
        8
1071
      255
1071
        0
1004

1040
0.0
1071
        1
  0
LWPOLYLINE
  5
81
330
2
100
AcDbEntity
  8
A--L107-
  6
Continuous
 62
     1
 48
400.0
100
AcDbPolyline
 90
        2
 70
     0
 43
0.0
 10
1000.0
 20
172.5
 10
100.0
 20
172.5
1001
TSA_
1071
        1
1071
        3
1071
        8
1071
      255
1071
        0
1004

1040
0.0
1071
        1
  0
TEXT
  5
82
330
2
100
AcDbEntity
  8
A--T1---
 62
     3
100
AcDbText
 10
120.0
 20
215.0
 30
0.0
 40
14.0
  1
Detail: 359
  7
TSA-7
100
AcDbText
1001
TSA_
1071
        1
1071
        4
1071
        6
1071
      127
1071
        0
1004

1040
0.0
1071
        7
  0
LWPOLYLINE
  5
85
330
2
100
AcDbEntity
  8
A--L98--
  6
Continuous
 62
     1
 48
400.0
100
AcDbPolyline
 90
        4
 70
     1
 43
0.0
 10
0.0
 20
0.0
 10
0.0
 20
1485.0
 10
1050.0
 20
1485.0
 10
1050.0
 20
0.0
1001
TSA_
1071
        1
1071
        5
1071
        8
1071
      255
1071
        0
1004

1040
0.0
1071
        1
  0
LWPOLYLINE
  5
87
330
2
100
AcDbEntity
  8
A--L98--
  6
Continuous
 62
     1
 48
400.0
100
AcDbPolyline
 90
        4
 70
     1
 43
0.0
 10
100.0
 20
172.5
 10
100.0
 20
1435.0
 10
1000.0
 20
1435.0
 10
1000.0
 20
172.5
1001
TSA_
1071
        1
1071
        6
1071
        8
1071
      255
1071
        0
1004

1040
0.0
1071
        1
  0
ENDSEC
  0
SECTION
  2
OBJECTS
  0
DICTIONARY
  5
7
330
0
100
AcDbDictionary
281
     1
  3
ACAD_GROUP
350
9F
  3
ACAD_LAYOUT
350
8B
  3
ACAD_MLINESTYLE
350
A0
  3
ACAD_PLOTSETTINGS
350
A1
  3
ACAD_PLOTSTYLENAME
350
6
  0
DICTIONARY
  5
9F
102
{ACAD_REACTORS
330
7
102
}
330
7
100
AcDbDictionary
281
     1
  0
DICTIONARY
  5
8B
102
{ACAD_REACTORS
330
7
102
}
330
7
100
AcDbDictionary
281
     1
  3
Layout1
350
8F
  3
Model
350
8A
  0
DICTIONARY
  5
A0
102
{ACAD_REACTORS
330
7
102
}
330
7
100
AcDbDictionary
281
     1
  3
Standard
350
A2
  0
DICTIONARY
  5
A1
102
{ACAD_REACTORS
330
7
102
}
330
7
100
AcDbDictionary
281
     1
  0
ACDBDICTIONARYWDFLT
  5
6
102
{ACAD_REACTORS
330
7
102
}
330
7
100
AcDbDictionary
281
     1
  3
Normal
350
5
100
AcDbDictionaryWithDefault
340
5
  0
LAYOUT
  5
8F
102
{ACAD_REACTORS
330
8B
102
}
330
8B
100
AcDbPlotSettings
  1

  2
\\AUTO\HP LaserJet 5 Programmeurs
  4

  6

 40
0.0
 41
0.0
 42
0.0
 43
0.0
 44
0.0
 45
0.0
 46
0.0
 47
0.0
 48
0.0
 49
0.0
140
0.0
141
0.0
142
1.0
143
1.0
 70
   688
 72
     0
 73
     0
 74
     5
  7
Default R14 pen assignments.ctb
 75
    16
147
1.0
148
0.0
149
0.0
100
AcDbLayout
  1
Layout1
 70
     1
 71
     1
 10
0.0
 20
0.0
 11
420.0
 21
297.0
 12
0.0
 22
0.0
 32
0.0
 14
1.000000E+20
 24
1.000000E+20
 34
1.000000E+20
 15
-1.000000E+20
 25
-1.000000E+20
 35
-1.000000E+20
146
0.0
 13
0.0
 23
0.0
 33
0.0
 16
1.0
 26
0.0
 36
0.0
 17
0.0
 27
1.0
 37
0.0
 76
     0
330
8C
  0
LAYOUT
  5
8A
102
{ACAD_REACTORS
330
8B
102
}
330
8B
100
AcDbPlotSettings
  1

  2
\\AUTO\HP LaserJet 5 Programmeurs
  4

  6

 40
0.0
 41
0.0
 42
0.0
 43
0.0
 44
0.0
 45
0.0
 46
0.0
 47
0.0
 48
0.0
 49
0.0
140
0.0
141
0.0
142
1.0
143
1.0
 70
  1712
 72
     0
 73
     0
 74
     0
  7
Default R14 pen assignments.ctb
 75
     0
147
1.0
148
0.0
149
0.0
100
AcDbLayout
  1
Model
 70
     1
 71
     0
 10
0.0
 20
0.0
 11
12.0
 21
9.0
 12
0.0
 22
0.0
 32
0.0
 14
0.0
 24
0.0
 34
0.0
 15
0.0
 25
0.0
 35
0.0
146
0.0
 13
0.0
 23
0.0
 33
0.0
 16
1.0
 26
0.0
 36
0.0
 17
0.0
 27
1.0
 37
0.0
 76
     0
330
2
  0
MLINESTYLE
  5
A2
102
{ACAD_REACTORS
330
A0
102
}
330
A0
100
AcDbMlineStyle
  2
STANDARD
 70
     0
  3

 62
   256
 51
90.0
 52
90.0
 71
     2
 49
0.5
 62
   256
  6
BYLAYER
 49
-0.5
 62
   256
  6
BYLAYER
  0
ACDBPLACEHOLDER
  5
5
102
{ACAD_REACTORS
330
6
102
}
330
6
  0
ENDSEC
  0
EOF
