  0
SECTION
  2
HEADER
  9
$ACADVER
  1
AC1015
  9
$ACADMAINTVER
 70
     6
  9
$DWGCODEPAGE
  3
ANSI_1252
  9
$INSBASE
 10
0.0
 20
0.0
 30
0.0
  9
$EXTMIN
 10
1.000000E+20
 20
1.000000E+20
 30
1.000000E+20
  9
$EXTMAX
 10
-1.000000E+20
 20
-1.000000E+20
 30
-1.000000E+20
  9
$LIMMIN
 10
0.0
 20
0.0
  9
$LIMMAX
 10
0.0
 20
0.0
  9
$ORTHOMODE
 70
     0
  9
$REGENMODE
 70
     1
  9
$FILLMODE
 70
     1
  9
$QTEXTMODE
 70
     0
  9
$MIRRTEXT
 70
     1
  9
$LTSCALE
 40
1.0
  9
$ATTMODE
 70
     1
  9
$TEXTSIZE
 40
0.2
  9
$TRACEWID
 40
0.05
  9
$TEXTSTYLE
  7
Standard
  9
$CLAYER
  8
0
  9
$CELTYPE
  6
Continuous
  9
$CECOLOR
 62
   256
  9
$CELTSCALE
 40
1.0
  9
$DISPSILH
 70
     0
  9
$DIMSCALE
 40
1.0
  9
$DIMASZ
 40
0.18
  9
$DIMEXO
 40
0.0625
  9
$DIMDLI
 40
0.38
  9
$DIMRND
 40
0.0
  9
$DIMDLE
 40
0.0
  9
$DIMEXE
 40
0.18
  9
$DIMTP
 40
0.0
  9
$DIMTM
 40
0.0
  9
$DIMTXT
 40
0.18
  9
$DIMCEN
 40
0.09
  9
$DIMTSZ
 40
0.0
  9
$DIMTOL
 70
     0
  9
$DIMLIM
 70
     0
  9
$DIMTIH
 70
     1
  9
$DIMTOH
 70
     1
  9
$DIMSE1
 70
     0
  9
$DIMSE2
 70
     0
  9
$DIMTAD
 70
     0
  9
$DIMZIN
 70
     0
  9
$DIMBLK
  1

  9
$DIMASO
 70
     1
  9
$DIMSHO
 70
     1
  9
$DIMPOST
  1

  9
$DIMAPOST
  1

  9
$DIMALT
 70
     0
  9
$DIMALTD
 70
     2
  9
$DIMALTF
 40
25.4
  9
$DIMLFAC
 40
1.0
  9
$DIMTOFL
 70
     0
  9
$DIMTVP
 40
0.0
  9
$DIMTIX
 70
     0
  9
$DIMSOXD
 70
     0
  9
$DIMSAH
 70
     0
  9
$DIMBLK1
  1

  9
$DIMBLK2
  1

  9
$DIMSTYLE
  2
Standard
  9
$DIMCLRD
 70
     0
  9
$DIMCLRE
 70
     0
  9
$DIMCLRT
 70
     0
  9
$DIMTFAC
 40
1.0
  9
$DIMGAP
 40
0.09
  9
$DIMJUST
 70
     0
  9
$DIMSD1
 70
     0
  9
$DIMSD2
 70
     0
  9
$DIMTOLJ
 70
     1
  9
$DIMTZIN
 70
     0
  9
$DIMALTZ
 70
     0
  9
$DIMALTTZ
 70
     0
  9
$DIMUPT
 70
     0
  9
$DIMDEC
 70
     4
  9
$DIMTDEC
 70
     4
  9
$DIMALTU
 70
     2
  9
$DIMALTTD
 70
     2
  9
$DIMTXSTY
  7
Standard
  9
$DIMAUNIT
 70
     0
  9
$DIMADEC
 70
     0
  9
$DIMALTRND
 40
0.0
  9
$DIMAZIN
 70
     0
  9
$DIMDSEP
 70
     0
  9
$DIMATFIT
 70
     3
  9
$DIMFRAC
 70
     0
  9
$DIMLDRBLK
  1

  9
$DIMLUNIT
 70
     2
  9
$DIMLWD
 70
     0
  9
$DIMLWE
 70
     0
  9
$DIMTMOVE
 70
     0
  9
$LUNITS
 70
     2
  9
$LUPREC
 70
     4
  9
$SKETCHINC
 40
0.1
  9
$FILLETRAD
 40
0.0
  9
$AUNITS
 70
     0
  9
$AUPREC
 70
     0
  9
$MENU
  1
acad
  9
$ELEVATION
 40
0.0
  9
$PELEVATION
 40
0.0
  9
$THICKNESS
 40
0.0
  9
$LIMCHECK
 70
     0
  9
$CHAMFERA
 40
0.0
  9
$CHAMFERB
 40
0.0
  9
$CHAMFERC
 40
0.0
  9
$CHAMFERD
 40
0.0
  9
$SKPOLY
 70
     0
  9
$TDCREATE
 40
0.000000000
  9
$TDUCREATE
 40
0.000000000
  9
$TDUPDATE
 40
0.000000000
  9
$TDUUPDATE
 40
0.000000000
  9
$TDINDWG
 40
0.0000000000
  9
$TDUSRTIMER
 40
0.0000000000
  9
$USRTIMER
 70
     1
  9
$ANGBASE
 50
0.0
  9
$ANGDIR
 70
     0
  9
$PDMODE
 70
     0
  9
$PDSIZE
 40
0.0
  9
$PLINEWID
 40
0.0
  9
$SPLFRAME
 70
     0
  9
$SPLINETYPE
 70
     6
  9
$SPLINESEGS
 70
     8
  9
$HANDSEED
  5
534
  9
$SURFTAB1
 70
     6
  9
$SURFTAB2
 70
     6
  9
$SURFTYPE
 70
     6
  9
$SURFU
 70
     6
  9
$SURFV
 70
     6
  9
$UCSBASE
  2

  9
$UCSNAME
  2

  9
$UCSORG
 10
0.0
 20
0.0
 30
0.0
  9
$UCSXDIR
 10
1.0
 20
0.0
 30
0.0
  9
$UCSYDIR
 10
0.0
 20
1.0
 30
0.0
  9
$UCSORTHOREF
  2

  9
$UCSORTHOVIEW
 70
     0
  9
$UCSORGTOP
 10
0.0
 20
0.0
 30
0.0
  9
$UCSORGBOTTOM
 10
0.0
 20
0.0
 30
0.0
  9
$UCSORGLEFT
 10
0.0
 20
0.0
 30
0.0
  9
$UCSORGRIGHT
 10
0.0
 20
0.0
 30
0.0
  9
$UCSORGFRONT
 10
0.0
 20
0.0
 30
0.0
  9
$UCSORGBACK
 10
0.0
 20
0.0
 30
0.0
  9
$PUCSBASE
  2

  9
$PUCSNAME
  2

  9
$PUCSORG
 10
0.0
 20
0.0
 30
0.0
  9
$PUCSXDIR
 10
1.0
 20
0.0
 30
0.0
  9
$PUCSYDIR
 10
0.0
 20
1.0
 30
0.0
  9
$PUCSORTHOREF
  2

  9
$PUCSORTHOVIEW
 70
     0
  9
$PUCSORGTOP
 10
0.0
 20
0.0
 30
0.0
  9
$PUCSORGBOTTOM
 10
0.0
 20
0.0
 30
0.0
  9
$PUCSORGLEFT
 10
0.0
 20
0.0
 30
0.0
  9
$PUCSORGRIGHT
 10
0.0
 20
0.0
 30
0.0
  9
$PUCSORGFRONT
 10
0.0
 20
0.0
 30
0.0
  9
$PUCSORGBACK
 10
0.0
 20
0.0
 30
0.0
  9
$USERI1
 70
 12345
  9
$USERI2
 70
     0
  9
$USERI3
 70
     0
  9
$USERI4
 70
     0
  9
$USERI5
 70
     0
  9
$USERR1
 40
0.0
  9
$USERR2
 40
0.0
  9
$USERR3
 40
0.0
  9
$USERR4
 40
0.0
  9
$USERR5
 40
0.0
  9
$WORLDVIEW
 70
     1
  9
$SHADEDGE
 70
     3
  9
$SHADEDIF
 70
    70
  9
$TILEMODE
 70
     0
  9
$MAXACTVP
 70
    64
  9
$PINSBASE
 10
0.0
 20
0.0
 30
0.0
  9
$PLIMCHECK
 70
     0
  9
$PEXTMIN
 10
-784.68599
 20
-487.000026
 30
0.0
  9
$PEXTMAX
 10
937.18599
 20
577.000026
 30
0.0
  9
$PLIMMIN
 10
0.0
 20
0.0
  9
$PLIMMAX
 10
12.0
 20
9.0
  9
$UNITMODE
 70
     0
  9
$VISRETAIN
 70
     0
  9
$PLINEGEN
 70
     1
  9
$PSLTSCALE
 70
     0
  9
$TREEDEPTH
 70
  3020
  9
$CMLSTYLE
  2
Standard
  9
$CMLJUST
 70
     0
  9
$CMLSCALE
 40
1.0
  9
$PROXYGRAPHICS
 70
     0
  9
$MEASUREMENT
 70
     0
  9
$CELWEIGHT
370
     0
  9
$ENDCAPS
280
     0
  9
$JOINSTYLE
280
     0
  9
$LWDISPLAY
290
     0
  9
$INSUNITS
 70
     0
  9
$HYPERLINKBASE
  1

  9
$STYLESHEET
  1

  9
$XEDIT
290
     1
  9
$CEPSNTYPE
380
     0
  9
$PSTYLEMODE
290
     1
  9
$FINGERPRINTGUID
  2

  9
$VERSIONGUID
  2

  9
$EXTNAMES
290
     1
  9
$PSVPSCALE
 40
0.0
  0
ENDSEC
  0
SECTION
  2
CLASSES
  0
CLASS
  1
LWPOLYLINE
  2
AcDbPolyline
  3
AutoCAD 2000
 90
        0
280
     0
281
     1
  0
CLASS
  1
IMAGE
  2
AcDbRasterImage
  3
ISM
 90
      127
280
     0
281
     1
  0
CLASS
  1
OLE2FRAME
  2
AcDbOle2Frame
  3
AutoCAD 2000
 90
        0
280
     0
281
     1
  0
CLASS
  1
HATCH
  2
AcDbHatch
  3
AutoCAD 2000
 90
        0
280
     0
281
     1
  0
CLASS
  1
DICTIONARYVAR
  2
AcDbDictionaryVar
  3
AutoCAD 2000
 90
        0
280
     0
281
     0
  0
CLASS
  1
RASTERVARIABLES
  2
AcDbRasterVariables
  3
ISM
 90
        0
280
     0
281
     0
  0
CLASS
  1
IMAGEDEF
  2
AcDbRasterImageDef
  3
ISM
 90
        0
280
     0
281
     0
  0
CLASS
  1
IMAGEDEF_REACTOR
  2
AcDbRasterImageDefReactor
  3
ISM
 90
        1
280
     0
281
     0
  0
CLASS
  1
IDBUFFER
  2
AcDbIdBuffer
  3
AutoCAD 2000
 90
        0
280
     0
281
     0
  0
CLASS
  1
SPATIAL_FILTER
  2
AcDbSpatialFilter
  3
AutoCAD 2000
 90
        0
280
     0
281
     0
  0
CLASS
  1
XRECORD
  2
AcDbXrecord
  3
AutoCAD 2000
 90
        0
280
     0
281
     0
  0
CLASS
  1
SORTENTSTABLE
  2
AcDbSortentsTable
  3
AutoCAD 2000
 90
        0
280
     0
281
     0
  0
CLASS
  1
LAYER_INDEX
  2
AcDbLayerIndex
  3
AutoCAD 2000
 90
        0
280
     0
281
     0
  0
CLASS
  1
SPATIAL_INDEX
  2
AcDbSpatialIndex
  3
AutoCAD 2000
 90
        0
280
     0
281
     0
  0
CLASS
  1
OBJECT_PTR
  2
CAseDLPNTableRecord
  3
"ASE-LPNTableRecord"
 90
        1
280
     0
281
     0
  0
CLASS
  1
LAYOUT
  2
AcDbLayout
  3
AutoCAD 2000
 90
        0
280
     0
281
     0
  0
CLASS
  1
PLOTSETTINGS
  2
AcDbPlotSettings
  3
AutoCAD 2000
 90
        0
280
     0
281
     0
  0
CLASS
  1
ACDBDICTIONARYWDFLT
  2
AcDbDictionaryWithDefault
  3
AutoCAD 2000
 90
        0
280
     0
281
     0
  0
CLASS
  1
ACDBPLACEHOLDER
  2
AcDbPlaceHolder
  3
AutoCAD 2000
 90
        0
280
     0
281
     0
  0
CLASS
  1
VBA_PROJECT
  2
AcDbVbaProject
  3
acadvba
 90
        0
280
     0
281
     0
  0
CLASS
  1
WIPEOUT
  2
AcDbWipeout
  3
WipeOut|AutoCAD Express Tool|expresstools@autodesk.com
 90
      127
280
     0
281
     1
  0
CLASS
  1
WIPEOUTVARIABLES
  2
AcDbWipeoutVariables
  3
WipeOut|AutoCAD Express Tool|expresstools@autodesk.com
 90
        0
280
     0
281
     0
  0
CLASS
  1
RTEXT
  2
RText
  3
RText|AutoCAD Express Tool|expresstools@autodesk.com
 90
        0
280
     0
281
     1
  0
CLASS
  1
ARCALIGNEDTEXT
  2
AcDbArcAlignedText
  3
ATEXT|AutoCAD Express Tool|expresstools@autodesk.com
 90
        0
280
     0
281
     1
  0
ENDSEC
  0
SECTION
  2
TABLES
  0
TABLE
  2
VPORT
  5
7
100
AcDbSymbolTable
 70
     1
  0
VPORT
  5
15
100
AcDbSymbolTableRecord
100
AcDbViewportTableRecord
  2
*ACTIVE
 70
     0
 10
0.0
 20
0.0
 11
1.0
 21
1.0
 12
76.250031
 22
44.999985
 13
0.0
 23
0.0
 14
1.0
 24
1.0
 15
0.0
 25
0.0
 16
0.0
 26
0.0
 36
1.0
 17
0.0
 27
0.0
 37
0.0
 40
1064.000031
 41
0.688564
 42
50.0
 43
0.0
 44
0.0
 50
0.0
 51
0.0
 71
     0
 72
   100
 73
     1
 74
     1
 75
     0
 76
     0
 77
     0
 78
     0
281
     0
 65
     0
110
0.0
120
0.0
130
0.0
111
1.0
121
0.0
131
0.0
112
0.0
122
1.0
132
0.0
345
0
346
0
 79
     0
146
0.0
  0
ENDTAB
  0
TABLE
  2
LTYPE
  5
4
100
AcDbSymbolTable
 70
     7
  0
LTYPE
  5
11
100
AcDbSymbolTableRecord
100
AcDbLinetypeTableRecord
  2
ByBlock
 70
    64
  3

 72
    65
 73
     0
 40
0.0
  0
LTYPE
  5
12
100
AcDbSymbolTableRecord
100
AcDbLinetypeTableRecord
  2
ByLayer
 70
    64
  3

 72
    65
 73
     0
 40
0.0
  0
LTYPE
  5
13
100
AcDbSymbolTableRecord
100
AcDbLinetypeTableRecord
  2
Continuous
 70
    64
  3
Solid line
 72
    65
 73
     0
 40
0.0
  0
LTYPE
  5
24
100
AcDbSymbolTableRecord
100
AcDbLinetypeTableRecord
  2
DASHED
 70
    64
  3
Dashed __ __ __
 72
    65
 73
     2
 40
135.0
 49
67.5
 74
     0
 49
-67.5
 74
     0
  0
LTYPE
  5
25
100
AcDbSymbolTableRecord
100
AcDbLinetypeTableRecord
  2
DOT
 70
    64
  3
Dot . . . .
 72
    65
 73
     2
 40
102.5
 49
17.5
 74
     0
 49
-85.0
 74
     0
  0
LTYPE
  5
26
100
AcDbSymbolTableRecord
100
AcDbLinetypeTableRecord
  2
DASHDOT
 70
    64
  3
Dash dot __ . __ .
 72
    65
 73
     4
 40
852.5
 49
680.0
 74
     0
 49
-77.5
 74
     0
 49
17.5
 74
     0
 49
-77.5
 74
     0
  0
LTYPE
  5
27
100
AcDbSymbolTableRecord
100
AcDbLinetypeTableRecord
  2
DIVIDE
 70
    64
  3
Divide __ . . __ . .
 72
    65
 73
     6
 40
855.0
 49
587.5
 74
     0
 49
-77.5
 74
     0
 49
17.5
 74
     0
 49
-77.5
 74
     0
 49
17.5
 74
     0
 49
-77.5
 74
     0
  0
ENDTAB
  0
TABLE
  2
LAYER
  5
2
100
AcDbSymbolTable
 70
     9
  0
LAYER
  5
14
100
AcDbSymbolTableRecord
100
AcDbLayerTableRecord
  2
0
 70
     0
 62
     7
  6
Continuous
290
     1
370
    -3
390
1D
  0
LAYER
  5
2C
100
AcDbSymbolTableRecord
100
AcDbLayerTableRecord
  2
LAYER98
 70
     0
 62
     7
  6
Continuous
290
     1
370
    -3
390
1D
  0
LAYER
  5
30
100
AcDbSymbolTableRecord
100
AcDbLayerTableRecord
  2
HATCH_REACTORS
 70
     0
 62
    -7
  6
Continuous
290
     1
370
    -3
390
1D
  0
LAYER
  5
32
100
AcDbSymbolTableRecord
100
AcDbLayerTableRecord
  2
LAYER111
 70
     0
 62
     7
  6
Continuous
290
     1
370
    -3
390
1D
  0
LAYER
  5
36
100
AcDbSymbolTableRecord
100
AcDbLayerTableRecord
  2
LAYER01
 70
     0
 62
   213
  6
Continuous
290
     1
370
    -3
390
1D
  0
LAYER
  5
355
100
AcDbSymbolTableRecord
100
AcDbLayerTableRecord
  2
LAYER21
 70
     0
 62
   213
  6
Continuous
290
     1
370
    -3
390
1D
  0
LAYER
  5
49C
100
AcDbSymbolTableRecord
100
AcDbLayerTableRecord
  2
LAYER02
 70
     0
 62
     7
  6
Continuous
290
     1
370
    -3
390
1D
  0
LAYER
  5
4DE
100
AcDbSymbolTableRecord
100
AcDbLayerTableRecord
  2
LAYER127
 70
     0
 62
     7
  6
Continuous
290
     1
370
    -3
390
1D
  0
LAYER
  5
4EE
100
AcDbSymbolTableRecord
100
AcDbLayerTableRecord
  2
LAYER49
 70
     0
 62
   213
  6
Continuous
290
     1
370
    -3
390
1D
  0
ENDTAB
  0
TABLE
  2
STYLE
  5
3
100
AcDbSymbolTable
 70
     1
  0
STYLE
  5
17
100
AcDbSymbolTableRecord
100
AcDbTextStyleTableRecord
  2
Standard
 70
     0
 40
0.0
 41
1.0
 50
0.0
 71
     0
 42
0.0
  3
txt
  4

  0
ENDTAB
  0
TABLE
  2
VIEW
  5
5
100
AcDbSymbolTable
 70
     0
  0
ENDTAB
  0
TABLE
  2
UCS
  5
6
100
AcDbSymbolTable
 70
     0
  0
ENDTAB
  0
TABLE
  2
APPID
  5
8
100
AcDbSymbolTable
 70
     1
  0
APPID
  5
16
100
AcDbSymbolTableRecord
100
AcDbRegAppTableRecord
  2
ACAD
 70
     0
  0
ENDTAB
  0
TABLE
  2
DIMSTYLE
  5
9
100
AcDbSymbolTable
 70
     1
100
AcDbDimStyleTable
 71
     0
  0
DIMSTYLE
105
18
100
AcDbSymbolTableRecord
100
AcDbDimStyleTableRecord
  2
Standard
 70
     0
  3

  4

 40
1.0
 41
0.18
 42
0.0625
 43
0.38
 44
0.18
 45
0.0
 46
0.0
 47
0.0
 48
0.0
 71
     0
 72
     0
 73
     1
 74
     1
 75
     0
 76
     0
 77
     0
 78
     0
 79
     0
140
0.18
141
0.09
142
0.0
143
25.4
144
1.0
145
0.0
146
1.0
147
0.09
148
0.0
170
     0
171
     2
172
     0
173
     0
174
     0
175
     0
176
     0
177
     0
178
     0
179
     0
271
     4
272
     4
273
     2
274
     2
275
     0
276
     0
277
     2
278
    46
279
     0
280
     0
281
     0
282
     0
283
     1
284
     0
285
     0
286
     0
288
     0
289
     3
340
17
341
0
342
0
343
0
344
0
371
    -2
372
    -2
  0
ENDTAB
  0
TABLE
  2
BLOCK_RECORD
  5
1
100
AcDbSymbolTable
 70
    31
  0
BLOCK_RECORD
  5
A
100
AcDbSymbolTableRecord
100
AcDbBlockTableRecord
  2
*MODEL_SPACE
340
20
  0
BLOCK_RECORD
  5
B
100
AcDbSymbolTableRecord
100
AcDbBlockTableRecord
  2
*PAPER_SPACE
340
21
  0
BLOCK_RECORD
  5
29
100
AcDbSymbolTableRecord
100
AcDbBlockTableRecord
  2
DET-DUI2_84
340
0
102
{BLKREFS
331
51A
102
}
  0
BLOCK_RECORD
  5
2D
100
AcDbSymbolTableRecord
100
AcDbBlockTableRecord
  2
2-300____U_84
340
0
102
{BLKREFS
331
512
102
}
  0
BLOCK_RECORD
  5
33
100
AcDbSymbolTableRecord
100
AcDbBlockTableRecord
  2
HATCH-CA_U_84
340
0
102
{BLKREFS
331
4A
102
}
  0
BLOCK_RECORD
  5
4B
100
AcDbSymbolTableRecord
100
AcDbBlockTableRecord
  2
HATCH-CB_U_84
340
0
102
{BLKREFS
331
AA
102
}
  0
BLOCK_RECORD
  5
AD
100
AcDbSymbolTableRecord
100
AcDbBlockTableRecord
  2
HATCH-CC_U_84
340
0
102
{BLKREFS
331
ED
102
}
  0
BLOCK_RECORD
  5
EE
100
AcDbSymbolTableRecord
100
AcDbBlockTableRecord
  2
HATCH-CD_U_84
340
0
102
{BLKREFS
331
FB
102
}
  0
BLOCK_RECORD
  5
FC
100
AcDbSymbolTableRecord
100
AcDbBlockTableRecord
  2
-FENSTER_U_M_84
340
0
102
{BLKREFS
331
311
102
}
  0
BLOCK_RECORD
  5
316
100
AcDbSymbolTableRecord
100
AcDbBlockTableRecord
  2
HATCH-CH_U_84
340
0
102
{BLKREFS
331
33D
102
}
  0
BLOCK_RECORD
  5
34B
100
AcDbSymbolTableRecord
100
AcDbBlockTableRecord
  2
X80_F_US_U_84
340
0
102
{BLKREFS
331
361
102
}
  0
BLOCK_RECORD
  5
352
100
AcDbSymbolTableRecord
100
AcDbBlockTableRecord
  2
2--C2EV-CI_U_84
340
0
102
{BLKREFS
331
35F
102
}
  0
BLOCK_RECORD
  5
362
100
AcDbSymbolTableRecord
100
AcDbBlockTableRecord
  2
_D---BLQ_U_84
340
0
102
{BLKREFS
331
36E
102
}
  0
BLOCK_RECORD
  5
381
100
AcDbSymbolTableRecord
100
AcDbBlockTableRecord
  2
1-115_TV_U_84
340
0
102
{BLKREFS
331
39E
102
}
  0
BLOCK_RECORD
  5
3A0
100
AcDbSymbolTableRecord
100
AcDbBlockTableRecord
  2
04006016_U_84
340
0
102
{BLKREFS
331
3BA
102
}
  0
BLOCK_RECORD
  5
3BF
100
AcDbSymbolTableRecord
100
AcDbBlockTableRecord
  2
HATCH-CJ_U_84
340
0
102
{BLKREFS
331
3D8
102
}
  0
BLOCK_RECORD
  5
3DD
100
AcDbSymbolTableRecord
100
AcDbBlockTableRecord
  2
HATCH-CK_U_84
340
0
102
{BLKREFS
331
3FD
102
}
  0
BLOCK_RECORD
  5
418
100
AcDbSymbolTableRecord
100
AcDbBlockTableRecord
  2
HATCH-CL_U_84
340
0
102
{BLKREFS
331
429
102
}
  0
BLOCK_RECORD
  5
453
100
AcDbSymbolTableRecord
100
AcDbBlockTableRecord
  2
HATCH-CM_U_84
340
0
102
{BLKREFS
331
461
102
}
  0
BLOCK_RECORD
  5
46B
100
AcDbSymbolTableRecord
100
AcDbBlockTableRecord
  2
HATCH-CN_U_84
340
0
102
{BLKREFS
331
47A
102
}
  0
BLOCK_RECORD
  5
485
100
AcDbSymbolTableRecord
100
AcDbBlockTableRecord
  2
HATCH-CO_U_84
340
0
102
{BLKREFS
331
49A
102
}
  0
BLOCK_RECORD
  5
4A3
100
AcDbSymbolTableRecord
100
AcDbBlockTableRecord
  2
_BOHR_FV_U_84
340
0
102
{BLKREFS
331
4AF
102
}
  0
BLOCK_RECORD
  5
4B2
100
AcDbSymbolTableRecord
100
AcDbBlockTableRecord
  2
_D---BOP_U_84
340
0
102
{BLKREFS
331
4C1
102
}
  0
BLOCK_RECORD
  5
4BB
100
AcDbSymbolTableRecord
100
AcDbBlockTableRecord
  2
IT5E11___U_84
340
0
102
{BLKREFS
331
4BF
102
}
  0
BLOCK_RECORD
  5
4C2
100
AcDbSymbolTableRecord
100
AcDbBlockTableRecord
  2
_D---BOQ_U_84
340
0
102
{BLKREFS
331
4DA
102
}
  0
BLOCK_RECORD
  5
4CB
100
AcDbSymbolTableRecord
100
AcDbBlockTableRecord
  2
IT5E11___U_842
340
0
102
{BLKREFS
331
4CF
102
}
  0
BLOCK_RECORD
  5
4D4
100
AcDbSymbolTableRecord
100
AcDbBlockTableRecord
  2
IT5E11___U_843
340
0
102
{BLKREFS
331
4D8
102
}
  0
BLOCK_RECORD
  5
4DB
100
AcDbSymbolTableRecord
100
AcDbBlockTableRecord
  2
T-ACHTER_U_84
340
0
102
{BLKREFS
331
4E1
102
}
  0
BLOCK_RECORD
  5
4E2
100
AcDbSymbolTableRecord
100
AcDbBlockTableRecord
  2
T-ROCKP__U_M_84
340
0
102
{BLKREFS
331
4E6
102
}
  0
BLOCK_RECORD
  5
4E7
100
AcDbSymbolTableRecord
100
AcDbBlockTableRecord
  2
T-VENTIL_U_84
340
0
102
{BLKREFS
331
4EB
102
}
  0
BLOCK_RECORD
  5
513
100
AcDbSymbolTableRecord
100
AcDbBlockTableRecord
  2
2-300____U_S_84
340
0
102
{BLKREFS
331
518
102
}
  0
BLOCK_RECORD
  5
522
100
AcDbSymbolTableRecord
100
AcDbBlockTableRecord
  2
KLPL2_A4_U_S_0
340
0
102
{BLKREFS
331
52B
102
}
  0
BLOCK_RECORD
  5
52C
100
AcDbSymbolTableRecord
100
AcDbBlockTableRecord
  2
KLPL2_A4_U_T_0
340
0
102
{BLKREFS
331
533
102
}
  0
ENDTAB
  0
ENDSEC
  0
SECTION
  2
BLOCKS
  0
BLOCK
  5
D
100
AcDbEntity
  8
0
390
0
100
AcDbBlockBegin
  2
*MODEL_SPACE
 70
     0
 10
0.0
 20
0.0
 30
0.0
  3
*MODEL_SPACE
  1

  0
ENDBLK
  5
E
100
AcDbEntity
  8
0
390
0
100
AcDbBlockEnd
  0
BLOCK
  5
F
100
AcDbEntity
 67
     1
  8
0
390
0
100
AcDbBlockBegin
  2
*PAPER_SPACE
 70
     0
 10
0.0
 20
0.0
 30
0.0
  3
*PAPER_SPACE
  1

  0
ENDBLK
  5
10
100
AcDbEntity
 67
     1
  8
0
390
0
100
AcDbBlockEnd
  0
BLOCK
  5
2A
100
AcDbEntity
  8
0
390
0
100
AcDbBlockBegin
  2
DET-DUI2_84
 70
     0
 10
0.0
 20
0.0
 30
0.0
  3
DET-DUI2_84
  1

  0
LWPOLYLINE
  5
2B
100
AcDbEntity
  8
LAYER98
370
     0
390
0
  6
DASHED
 62
     7
100
AcDbPolyline
 90
        4
 70
     1
 10
-1682.587646
 20
-1205.980469
 10
-1682.587646
 20
-825.980408
 10
-1188.987549
 20
-825.980408
 10
-1188.987549
 20
-1205.980469
  0
INSERT
  5
512
100
AcDbEntity
  8
LAYER98
390
0
100
AcDbBlockReference
  2
2-300____U_84
 10
-1570.849854
 20
-1200.5802
 30
0.0
 50
90.0
  0
INSERT
  5
518
100
AcDbEntity
  8
LAYER98
390
0
100
AcDbBlockReference
  2
2-300____U_S_84
 10
-1570.849854
 20
-1200.5802
 30
0.0
 50
90.0
  0
ENDBLK
  5
519
100
AcDbEntity
  8
0
390
0
100
AcDbBlockEnd
  0
BLOCK
  5
2E
100
AcDbEntity
  8
0
390
0
100
AcDbBlockBegin
  2
2-300____U_84
 70
     0
 10
0.0
 20
0.0
 30
0.0
  3
2-300____U_84
  1

  0
LWPOLYLINE
  5
2F
102
{ACAD_REACTORS
330
31
102
}
100
AcDbEntity
  8
HATCH_REACTORS
390
0
100
AcDbPolyline
 90
        4
 70
     1
 10
239.168518
 20
-100.0
 10
0.0
 20
-100.0
 10
0.0
 20
0.0
 10
239.168518
 20
0.0
  0
HATCH
  5
31
100
AcDbEntity
  8
LAYER111
370
     5
390
0
  6
Continuous
 62
   253
100
AcDbHatch
 10
0.0
 20
0.0
 30
0.0
210
0.0
220
0.0
230
1.0
  2
_CC7C1+B-1
 70
     1
 71
     1
 91
        1
 92
        2
 72
     0
 73
     1
 93
        4
 10
239.16851806640625
 20
-100.0
 10
0.0
 20
-100.0
 10
0.0
 20
0.0
 10
239.16851806640625
 20
0.0
 97
        1
330
2F
 75
     0
 76
     0
 98
        0
  0
INSERT
  5
4A
100
AcDbEntity
  8
LAYER01
390
0
100
AcDbBlockReference
  2
HATCH-CA_U_84
 10
-5209.419922
 20
-983.849854
 30
0.0
  0
INSERT
  5
AA
100
AcDbEntity
  8
LAYER01
390
0
100
AcDbBlockReference
  2
HATCH-CB_U_84
 10
-5209.419922
 20
-983.849854
 30
0.0
  0
LWPOLYLINE
  5
AB
100
AcDbEntity
  8
LAYER01
370
    35
390
0
  6
Continuous
 62
   134
100
AcDbPolyline
 90
        9
 70
     1
 10
249.168518
 20
-73.0
 10
249.168518
 20
-97.0
 42
0.414214
 10
252.168518
 20
-100.0
 10
266.168518
 20
-100.0
 42
0.414214
 10
269.168518
 20
-97.0
 10
269.168518
 20
-73.0
 42
0.414214
 10
266.168518
 20
-70.0
 10
252.168518
 20
-70.0
 42
0.414214
 10
249.168518
 20
-73.0
  0
LWPOLYLINE
  5
AC
100
AcDbEntity
  8
LAYER01
370
    35
390
0
  6
Continuous
 62
   134
100
AcDbPolyline
 90
        9
 70
     1
 10
251.168518
 20
-73.0
 10
251.168518
 20
-97.0
 42
0.414214
 10
252.168518
 20
-98.0
 10
266.168518
 20
-98.0
 42
0.414214
 10
267.168518
 20
-97.0
 10
267.168518
 20
-73.0
 42
0.414214
 10
266.168518
 20
-72.0
 10
252.168518
 20
-72.0
 42
0.414214
 10
251.168518
 20
-73.0
  0
INSERT
  5
ED
100
AcDbEntity
  8
LAYER01
390
0
100
AcDbBlockReference
  2
HATCH-CC_U_84
 10
-5209.419922
 20
-983.849854
 30
0.0
  0
INSERT
  5
FB
100
AcDbEntity
  8
LAYER01
390
0
100
AcDbBlockReference
  2
HATCH-CD_U_84
 10
-5209.419922
 20
-983.849854
 30
0.0
  0
INSERT
  5
311
100
AcDbEntity
  8
LAYER01
390
0
100
AcDbBlockReference
  2
-FENSTER_U_M_84
 10
274.168518
 20
-67.0
 30
0.0
 50
270.0
  0
LWPOLYLINE
  5
312
100
AcDbEntity
  8
LAYER01
370
    25
390
0
  6
DASHDOT
 62
    92
100
AcDbPolyline
 90
        2
 70
     0
 10
370.904907
 20
0.0
 10
370.904907
 20
-138.344482
  0
LWPOLYLINE
  5
313
100
AcDbEntity
  8
LAYER01
370
    25
390
0
  6
Continuous
 62
    92
100
AcDbPolyline
 90
        2
 70
     0
 10
0.0
 20
-200.0
 10
135.149414
 20
-200.0
  0
LWPOLYLINE
  5
314
100
AcDbEntity
  8
LAYER01
370
    25
390
0
  6
Continuous
 62
    92
100
AcDbPolyline
 90
        2
 70
     0
 10
142.168579
 20
-200.0
 10
282.048645
 20
-200.0
  0
LWPOLYLINE
  5
315
100
AcDbEntity
  8
LAYER01
370
    35
390
0
  6
Continuous
 62
   134
100
AcDbPolyline
 90
        2
 70
     0
 10
0.0
 20
-100.0
 10
239.168518
 20
-100.0
  0
INSERT
  5
33D
100
AcDbEntity
  8
LAYER01
390
0
100
AcDbBlockReference
  2
HATCH-CH_U_84
 10
-5209.419922
 20
-983.849854
 30
0.0
  0
LWPOLYLINE
  5
33E
100
AcDbEntity
  8
LAYER01
370
    25
390
0
  6
DASHDOT
 62
    92
100
AcDbPolyline
 90
        2
 70
     0
 10
154.969238
 20
-223.219727
 10
154.969238
 20
-240.5
  0
LWPOLYLINE
  5
33F
100
AcDbEntity
  8
LAYER01
370
    35
390
0
  6
Continuous
 62
   134
100
AcDbPolyline
 90
        2
 70
     0
 10
152.569214
 20
-230.0
 10
152.569214
 20
-238.0
  0
LWPOLYLINE
  5
340
100
AcDbEntity
  8
LAYER01
370
    35
390
0
  6
Continuous
 62
   134
100
AcDbPolyline
 90
        2
 70
     0
 10
157.369263
 20
-230.0
 10
157.369263
 20
-238.0
  0
LWPOLYLINE
  5
341
100
AcDbEntity
  8
LAYER01
370
    35
390
0
  6
Continuous
 62
   134
100
AcDbPolyline
 90
        2
 70
     0
 10
158.969238
 20
-230.0
 10
158.969238
 20
-238.0
  0
LWPOLYLINE
  5
342
100
AcDbEntity
  8
LAYER01
370
    35
390
0
  6
Continuous
 62
   134
100
AcDbPolyline
 90
        2
 70
     0
 10
150.969238
 20
-230.0
 10
150.969238
 20
-238.0
  0
LWPOLYLINE
  5
343
100
AcDbEntity
  8
LAYER01
370
    35
390
0
  6
Continuous
 62
   134
100
AcDbPolyline
 90
        7
 70
     1
 10
148.969238
 20
-239.5
 10
160.969238
 20
-239.5
 42
0.414214
 10
161.969238
 20
-238.5
 10
161.969238
 20
-238.0
 10
147.969238
 20
-238.0
 10
147.969238
 20
-238.5
 42
0.414214
 10
148.969238
 20
-239.5
  0
LWPOLYLINE
  5
344
100
AcDbEntity
  8
LAYER01
370
    35
390
0
  6
Continuous
 62
   134
100
AcDbPolyline
 90
        2
 70
     0
 10
152.015381
 20
-225.400146
 10
157.923218
 20
-225.400146
  0
LWPOLYLINE
  5
345
100
AcDbEntity
  8
LAYER01
370
    13
390
0
  6
Continuous
 62
   213
100
AcDbPolyline
 90
        2
 70
     0
 10
156.509888
 20
-225.400146
 42
0.626098
 10
153.428589
 20
-225.400146
  0
LWPOLYLINE
  5
346
100
AcDbEntity
  8
LAYER01
370
    13
390
0
  6
Continuous
 62
   213
100
AcDbPolyline
 90
        2
 70
     0
 10
152.015381
 20
-225.400146
 42
0.423414
 10
151.393677
 20
-228.400146
  0
LWPOLYLINE
  5
347
100
AcDbEntity
  8
LAYER01
370
    13
390
0
  6
Continuous
 62
   213
100
AcDbPolyline
 90
        2
 70
     0
 10
158.544922
 20
-228.400146
 42
0.423414
 10
157.923096
 20
-225.399902
  0
LWPOLYLINE
  5
348
100
AcDbEntity
  8
LAYER01
370
    35
390
0
  6
Continuous
 62
   134
100
AcDbPolyline
 90
        4
 70
     1
 10
137.168579
 20
-105.0
 10
202.168518
 20
-105.0
 10
202.168518
 20
-100.0
 10
137.168579
 20
-100.0
  0
LWPOLYLINE
  5
349
100
AcDbEntity
  8
LAYER01
370
    18
390
0
  6
DASHED
 62
     7
100
AcDbPolyline
 90
        2
 70
     0
 10
170.168579
 20
-105.0
 10
170.168579
 20
-100.0
  0
LWPOLYLINE
  5
34A
100
AcDbEntity
  8
LAYER01
370
    18
390
0
  6
DASHED
 62
     7
100
AcDbPolyline
 90
        2
 70
     0
 10
148.168579
 20
-105.0
 10
148.168579
 20
-100.0
  0
INSERT
  5
361
100
AcDbEntity
  8
LAYER01
390
0
100
AcDbBlockReference
  2
X80_F_US_U_84
 10
159.168579
 20
-111.0
 30
0.0
 50
270.0
  0
INSERT
  5
36E
100
AcDbEntity
  8
LAYER01
390
0
100
AcDbBlockReference
  2
_D---BLQ_U_84
 10
-5209.419922
 20
-983.849854
 30
0.0
  0
LWPOLYLINE
  5
36F
100
AcDbEntity
  8
LAYER01
370
    25
390
0
  6
Continuous
 62
    92
100
AcDbPolyline
 90
        3
 70
     0
 10
0.0
 20
-101.455322
 42
-0.350838
 10
8.183472
 20
-118.317627
 10
0.0
 20
-154.401611
  0
LWPOLYLINE
  5
370
100
AcDbEntity
  8
LAYER01
370
    25
390
0
  6
Continuous
 62
    92
100
AcDbPolyline
 90
        2
 70
     0
 10
0.365112
 20
-197.066895
 42
0.67368
 10
23.183472
 20
-181.182617
  0
LWPOLYLINE
  5
371
100
AcDbEntity
  8
LAYER01
370
    25
390
0
  6
Continuous
 62
    92
100
AcDbPolyline
 90
        5
 70
     0
 10
23.183472
 20
-181.182617
 10
8.926392
 20
-118.317627
 42
-1.252186
 10
38.183472
 20
-118.317627
 10
23.926392
 20
-181.182617
 42
1.252176
 10
53.183472
 20
-181.182617
  0
LWPOLYLINE
  5
372
100
AcDbEntity
  8
LAYER01
370
    25
390
0
  6
Continuous
 62
    92
100
AcDbPolyline
 90
        5
 70
     0
 10
53.183472
 20
-181.182617
 10
38.926392
 20
-118.317627
 42
-1.252186
 10
68.183472
 20
-118.317627
 10
53.926392
 20
-181.182617
 42
1.252176
 10
83.183472
 20
-181.182617
  0
LWPOLYLINE
  5
373
100
AcDbEntity
  8
LAYER01
370
    25
390
0
  6
Continuous
 62
    92
100
AcDbPolyline
 90
        5
 70
     0
 10
83.183472
 20
-181.182617
 10
68.926392
 20
-118.317627
 42
-1.252186
 10
98.183472
 20
-118.317627
 10
83.926392
 20
-181.182617
 42
1.252176
 10
113.183472
 20
-181.182617
  0
LWPOLYLINE
  5
374
100
AcDbEntity
  8
LAYER01
370
    25
390
0
  6
Continuous
 62
    92
100
AcDbPolyline
 90
        5
 70
     0
 10
113.183472
 20
-181.182617
 10
98.926392
 20
-118.317627
 42
-1.252186
 10
128.183472
 20
-118.317627
 10
113.926392
 20
-181.182617
 42
0.627147
 10
135.035645
 20
-198.027832
  0
LWPOLYLINE
  5
375
100
AcDbEntity
  8
LAYER01
370
    25
390
0
  6
Continuous
 62
    92
100
AcDbPolyline
 90
        3
 70
     0
 10
137.839233
 20
-157.61792
 10
128.926392
 20
-118.317627
 42
-0.242795
 10
132.374512
 20
-105.0
  0
LWPOLYLINE
  5
376
100
AcDbEntity
  8
LAYER01
370
    25
390
0
  6
Continuous
 62
    92
100
AcDbPolyline
 90
        2
 70
     0
 10
153.735229
 20
-105.0
 42
-0.002576
 10
153.837646
 20
-105.115723
  0
LWPOLYLINE
  5
377
100
AcDbEntity
  8
LAYER01
370
    25
390
0
  6
Continuous
 62
    92
100
AcDbPolyline
 90
        3
 70
     0
 10
157.960571
 20
-119.300049
 10
143.926392
 20
-181.182617
 42
1.252176
 10
173.183472
 20
-181.182617
  0
LWPOLYLINE
  5
378
100
AcDbEntity
  8
LAYER01
370
    25
390
0
  6
Continuous
 62
    92
100
AcDbPolyline
 90
        2
 70
     0
 10
173.183472
 20
-181.182617
 10
159.14917
 20
-119.300049
  0
LWPOLYLINE
  5
379
100
AcDbEntity
  8
LAYER01
370
    25
390
0
  6
Continuous
 62
    92
100
AcDbPolyline
 90
        2
 70
     0
 10
161.367554
 20
-105.008057
 42
-0.000176
 10
161.374634
 20
-105.000244
  0
LWPOLYLINE
  5
37A
100
AcDbEntity
  8
LAYER01
370
    25
390
0
  6
Continuous
 62
    92
100
AcDbPolyline
 90
        4
 70
     0
 10
187.302673
 20
-109.0
 42
-0.159979
 10
188.183472
 20
-118.317627
 10
173.926392
 20
-181.182617
 42
1.252176
 10
203.183472
 20
-181.182617
  0
LWPOLYLINE
  5
37B
100
AcDbEntity
  8
LAYER01
370
    25
390
0
  6
Continuous
 62
    92
100
AcDbPolyline
 90
        3
 70
     0
 10
203.183411
 20
-181.182617
 10
188.926392
 20
-118.317627
 42
-0.198953
 10
190.866333
 20
-107.0
  0
LWPOLYLINE
  5
37C
100
AcDbEntity
  8
LAYER01
370
    25
390
0
  6
Continuous
 62
    92
100
AcDbPolyline
 90
        4
 70
     0
 10
202.168518
 20
-100.064209
 42
-0.509973
 10
218.183472
 20
-118.317627
 10
203.926392
 20
-181.182617
 42
1.252176
 10
233.183472
 20
-181.182617
  0
LWPOLYLINE
  5
37D
100
AcDbEntity
  8
LAYER01
370
    25
390
0
  6
Continuous
 62
    92
100
AcDbPolyline
 90
        5
 70
     0
 10
233.183411
 20
-181.182617
 10
218.926392
 20
-118.317627
 42
-1.252187
 10
248.183472
 20
-118.317627
 10
233.926392
 20
-181.182617
 42
1.252176
 10
263.183472
 20
-181.182617
  0
LWPOLYLINE
  5
37E
100
AcDbEntity
  8
LAYER01
370
    25
390
0
  6
Continuous
 62
    92
100
AcDbPolyline
 90
        2
 70
     0
 10
263.183411
 20
-181.182617
 10
252.131226
 20
-132.448975
  0
LWPOLYLINE
  5
37F
100
AcDbEntity
  8
LAYER01
370
    25
390
0
  6
Continuous
 62
    92
100
AcDbPolyline
 90
        2
 70
     0
 10
137.168579
 20
-100.0
 10
202.168518
 20
-105.0
  0
LWPOLYLINE
  5
380
100
AcDbEntity
  8
LAYER01
370
    25
390
0
  6
Continuous
 62
    92
100
AcDbPolyline
 90
        2
 70
     0
 10
202.168518
 20
-100.0
 10
137.168579
 20
-105.0
  0
INSERT
  5
39E
100
AcDbEntity
  8
LAYER01
390
0
100
AcDbBlockReference
  2
1-115_TV_U_84
 10
137.168579
 20
-105.0
 30
0.0
 50
270.0
  0
LWPOLYLINE
  5
39F
100
AcDbEntity
  8
LAYER01
370
    35
390
0
  6
Continuous
 62
   134
100
AcDbPolyline
 90
        4
 70
     1
 10
147.168579
 20
-111.0
 10
171.168579
 20
-111.0
 10
171.168579
 20
-109.0
 10
147.168579
 20
-109.0
  0
INSERT
  5
3BA
100
AcDbEntity
  8
LAYER01
390
0
100
AcDbBlockReference
  2
04006016_U_84
 10
138.068604
 20
-230.0
 30
0.0
  0
LWPOLYLINE
  5
3BB
100
AcDbEntity
  8
LAYER01
370
    25
390
0
  6
DASHDOT
 62
    92
100
AcDbPolyline
 90
        2
 70
     0
 10
0.0
 20
-100.0
 10
0.0
 20
0.0
  0
LWPOLYLINE
  5
3BC
100
AcDbEntity
  8
LAYER01
370
    25
390
0
  6
DASHDOT
 62
    92
100
AcDbPolyline
 90
        2
 70
     0
 10
0.0
 20
0.0
 10
370.904907
 20
0.0
  0
LWPOLYLINE
  5
3BD
100
AcDbEntity
  8
LAYER01
370
    35
390
0
  6
Continuous
 62
   134
100
AcDbPolyline
 90
        2
 70
     0
 10
239.168518
 20
-100.0
 10
239.168518
 20
0.0
  0
LWPOLYLINE
  5
3BE
100
AcDbEntity
  8
LAYER01
370
    25
390
0
  6
Continuous
 62
    92
100
AcDbPolyline
 90
        2
 70
     0
 10
282.048645
 20
-134.0
 10
282.048645
 20
-200.0
  0
INSERT
  5
3D8
100
AcDbEntity
  8
LAYER01
390
0
100
AcDbBlockReference
  2
HATCH-CJ_U_84
 10
-5209.419922
 20
-983.849854
 30
0.0
  0
LWPOLYLINE
  5
3D9
100
AcDbEntity
  8
LAYER01
370
    35
390
0
  6
Continuous
 62
   134
100
AcDbPolyline
 90
        4
 70
     1
 10
249.168518
 20
-127.0
 10
269.168518
 20
-127.0
 10
269.168518
 20
-100.0
 10
249.168518
 20
-100.0
  0
LWPOLYLINE
  5
3DA
100
AcDbEntity
  8
LAYER01
370
    35
390
0
  6
Continuous
 62
   134
100
AcDbPolyline
 90
        4
 70
     0
 10
213.662842
 20
-100.21875
 10
248.660461
 20
-100.21875
 10
248.660461
 20
-132.448975
 10
269.157288
 20
-132.448975
  0
LWPOLYLINE
  5
3DB
100
AcDbEntity
  8
LAYER01
370
    25
390
0
  6
Continuous
 62
    92
100
AcDbPolyline
 90
        2
 70
     0
 10
263.183411
 20
-181.182617
 10
252.029419
 20
-132.0
  0
LWPOLYLINE
  5
3DC
100
AcDbEntity
  8
LAYER01
370
    25
390
0
  6
Continuous
 62
    92
100
AcDbPolyline
 90
        3
 70
     0
 10
274.626831
 20
-134.0
 10
263.926392
 20
-181.182617
 42
0.544595
 10
281.548645
 20
-199.198242
  0
INSERT
  5
3FD
100
AcDbEntity
  8
LAYER01
390
0
100
AcDbBlockReference
  2
HATCH-CK_U_84
 10
-5209.419922
 20
-983.849854
 30
0.0
  0
LWPOLYLINE
  5
3FE
100
AcDbEntity
  8
LAYER01
370
    35
390
0
  6
Continuous
 62
   134
100
AcDbPolyline
 90
        2
 70
     0
 10
262.048645
 20
-230.0
 10
302.048645
 20
-230.0
  0
LWPOLYLINE
  5
3FF
100
AcDbEntity
  8
LAYER01
370
    35
390
0
  6
Continuous
 62
   134
100
AcDbPolyline
 90
        2
 70
     0
 10
262.048645
 20
-228.0
 10
300.048645
 20
-228.0
  0
LWPOLYLINE
  5
400
100
AcDbEntity
  8
LAYER01
370
    35
390
0
  6
Continuous
 62
   134
100
AcDbPolyline
 90
        2
 70
     0
 10
302.048645
 20
-230.0
 10
302.048645
 20
-190.0
  0
LWPOLYLINE
  5
401
100
AcDbEntity
  8
LAYER01
370
    35
390
0
  6
Continuous
 62
   134
100
AcDbPolyline
 90
        2
 70
     0
 10
300.048645
 20
-228.0
 10
300.048645
 20
-190.0
  0
LWPOLYLINE
  5
402
100
AcDbEntity
  8
LAYER01
370
    35
390
0
  6
Continuous
 62
   134
100
AcDbPolyline
 90
        2
 70
     0
 10
262.048645
 20
-230.0
 10
262.048645
 20
-228.0
  0
LWPOLYLINE
  5
403
100
AcDbEntity
  8
LAYER01
370
    35
390
0
  6
Continuous
 62
   134
100
AcDbPolyline
 90
        2
 70
     0
 10
300.048645
 20
-190.0
 10
302.048645
 20
-190.0
  0
LWPOLYLINE
  5
404
100
AcDbEntity
  8
LAYER01
370
    25
390
0
  6
DASHDOT
 62
    92
100
AcDbPolyline
 90
        2
 70
     0
 10
285.048645
 20
-223.219727
 10
285.048645
 20
-240.5
  0
LWPOLYLINE
  5
405
100
AcDbEntity
  8
LAYER01
370
    35
390
0
  6
Continuous
 62
   134
100
AcDbPolyline
 90
        2
 70
     0
 10
282.648682
 20
-230.0
 10
282.648682
 20
-238.0
  0
LWPOLYLINE
  5
406
100
AcDbEntity
  8
LAYER01
370
    35
390
0
  6
Continuous
 62
   134
100
AcDbPolyline
 90
        2
 70
     0
 10
287.448669
 20
-230.0
 10
287.448669
 20
-238.0
  0
LWPOLYLINE
  5
407
100
AcDbEntity
  8
LAYER01
370
    35
390
0
  6
Continuous
 62
   134
100
AcDbPolyline
 90
        2
 70
     0
 10
289.048645
 20
-230.0
 10
289.048645
 20
-238.0
  0
LWPOLYLINE
  5
408
100
AcDbEntity
  8
LAYER01
370
    35
390
0
  6
Continuous
 62
   134
100
AcDbPolyline
 90
        2
 70
     0
 10
281.048645
 20
-230.0
 10
281.048645
 20
-238.0
  0
LWPOLYLINE
  5
409
100
AcDbEntity
  8
LAYER01
370
    35
390
0
  6
Continuous
 62
   134
100
AcDbPolyline
 90
        7
 70
     1
 10
279.048645
 20
-239.5
 10
291.048645
 20
-239.5
 42
0.414214
 10
292.048645
 20
-238.5
 10
292.048645
 20
-238.0
 10
278.048645
 20
-238.0
 10
278.048645
 20
-238.5
 42
0.414214
 10
279.048645
 20
-239.5
  0
LWPOLYLINE
  5
40A
100
AcDbEntity
  8
LAYER01
370
    35
390
0
  6
Continuous
 62
   134
100
AcDbPolyline
 90
        2
 70
     0
 10
282.094727
 20
-225.0
 10
288.002625
 20
-225.0
  0
LWPOLYLINE
  5
40B
100
AcDbEntity
  8
LAYER01
370
    13
390
0
  6
Continuous
 62
   213
100
AcDbPolyline
 90
        2
 70
     0
 10
286.589294
 20
-225.000244
 42
0.626098
 10
283.507996
 20
-225.000244
  0
LWPOLYLINE
  5
40C
100
AcDbEntity
  8
LAYER01
370
    13
390
0
  6
Continuous
 62
   213
100
AcDbPolyline
 90
        2
 70
     0
 10
282.094727
 20
-225.000244
 42
0.423414
 10
281.473022
 20
-228.000244
  0
LWPOLYLINE
  5
40D
100
AcDbEntity
  8
LAYER01
370
    13
390
0
  6
Continuous
 62
   213
100
AcDbPolyline
 90
        2
 70
     0
 10
288.62439
 20
-228.000244
 42
0.423414
 10
288.002625
 20
-225.000244
  0
LWPOLYLINE
  5
40E
100
AcDbEntity
  8
LAYER01
370
    25
390
0
  6
DASHDOT
 62
    92
100
AcDbPolyline
 90
        2
 70
     0
 10
295.268188
 20
-199.0
 10
312.548645
 20
-199.0
  0
LWPOLYLINE
  5
40F
100
AcDbEntity
  8
LAYER01
370
    35
390
0
  6
Continuous
 62
   134
100
AcDbPolyline
 90
        2
 70
     0
 10
302.048645
 20
-201.400146
 10
310.048645
 20
-201.400146
  0
LWPOLYLINE
  5
410
100
AcDbEntity
  8
LAYER01
370
    35
390
0
  6
Continuous
 62
   134
100
AcDbPolyline
 90
        2
 70
     0
 10
302.048645
 20
-196.600098
 10
310.048645
 20
-196.600098
  0
LWPOLYLINE
  5
411
100
AcDbEntity
  8
LAYER01
370
    35
390
0
  6
Continuous
 62
   134
100
AcDbPolyline
 90
        2
 70
     0
 10
302.048645
 20
-196.600098
 10
310.048645
 20
-196.600098
  0
LWPOLYLINE
  5
412
100
AcDbEntity
  8
LAYER01
370
    35
390
0
  6
Continuous
 62
   134
100
AcDbPolyline
 90
        2
 70
     0
 10
302.048645
 20
-201.400146
 10
310.048645
 20
-201.400146
  0
LWPOLYLINE
  5
413
100
AcDbEntity
  8
LAYER01
370
    35
390
0
  6
Continuous
 62
   134
100
AcDbPolyline
 90
        7
 70
     1
 10
311.548645
 20
-205.0
 10
311.548645
 20
-193.0
 42
0.414214
 10
310.548645
 20
-192.0
 10
310.048645
 20
-192.0
 10
310.048645
 20
-206.0
 10
310.548645
 20
-206.0
 42
0.414214
 10
311.548645
 20
-205.0
  0
LWPOLYLINE
  5
414
100
AcDbEntity
  8
LAYER01
370
    35
390
0
  6
Continuous
 62
   134
100
AcDbPolyline
 90
        2
 70
     0
 10
297.048645
 20
-201.954102
 10
297.048645
 20
-196.046143
  0
LWPOLYLINE
  5
415
100
AcDbEntity
  8
LAYER01
370
    13
390
0
  6
Continuous
 62
   213
100
AcDbPolyline
 90
        2
 70
     0
 10
297.048706
 20
-197.459473
 42
0.626097
 10
297.048706
 20
-200.540771
  0
LWPOLYLINE
  5
416
100
AcDbEntity
  8
LAYER01
370
    13
390
0
  6
Continuous
 62
   213
100
AcDbPolyline
 90
        2
 70
     0
 10
297.048706
 20
-201.954102
 42
0.423414
 10
300.048645
 20
-202.575684
  0
LWPOLYLINE
  5
417
100
AcDbEntity
  8
LAYER01
370
    13
390
0
  6
Continuous
 62
   213
100
AcDbPolyline
 90
        2
 70
     0
 10
300.048706
 20
-195.424316
 42
0.423414
 10
297.048645
 20
-196.046143
  0
INSERT
  5
429
100
AcDbEntity
  8
LAYER01
390
0
100
AcDbBlockReference
  2
HATCH-CL_U_84
 10
-5209.419922
 20
-983.849854
 30
0.0
  0
LWPOLYLINE
  5
42A
100
AcDbEntity
  8
LAYER01
370
    35
390
0
  6
Continuous
 62
   134
100
AcDbPolyline
 90
        6
 70
     1
 10
300.048645
 20
-134.0
 10
272.048645
 20
-134.0
 10
272.048645
 20
-132.0
 10
302.048645
 20
-132.0
 10
302.048645
 20
-172.0
 10
300.048645
 20
-172.0
  0
LWPOLYLINE
  5
42B
100
AcDbEntity
  8
LAYER01
370
    25
390
0
  6
DASHDOT
 62
    92
100
AcDbPolyline
 90
        2
 70
     0
 10
295.268188
 20
-160.0
 10
312.548645
 20
-160.0
  0
LWPOLYLINE
  5
42C
100
AcDbEntity
  8
LAYER01
370
    35
390
0
  6
Continuous
 62
   134
100
AcDbPolyline
 90
        2
 70
     0
 10
302.048645
 20
-157.600098
 10
310.048645
 20
-157.600098
  0
LWPOLYLINE
  5
42D
100
AcDbEntity
  8
LAYER01
370
    35
390
0
  6
Continuous
 62
   134
100
AcDbPolyline
 90
        2
 70
     0
 10
302.048645
 20
-162.400146
 10
310.048645
 20
-162.400146
  0
LWPOLYLINE
  5
42E
100
AcDbEntity
  8
LAYER01
370
    35
390
0
  6
Continuous
 62
   134
100
AcDbPolyline
 90
        2
 70
     0
 10
302.048645
 20
-155.75
 10
310.048645
 20
-155.75
  0
LWPOLYLINE
  5
42F
100
AcDbEntity
  8
LAYER01
370
    35
390
0
  6
Continuous
 62
   134
100
AcDbPolyline
 90
        7
 70
     1
 10
311.548645
 20
-154.0
 10
311.548645
 20
-166.0
 42
-0.414214
 10
310.548645
 20
-167.0
 10
310.048645
 20
-167.0
 10
310.048645
 20
-153.0
 10
310.548645
 20
-153.0
 42
-0.414214
 10
311.548645
 20
-154.0
  0
LWPOLYLINE
  5
430
100
AcDbEntity
  8
LAYER01
370
    35
390
0
  6
Continuous
 62
   134
100
AcDbPolyline
 90
        2
 70
     0
 10
297.048645
 20
-157.046143
 10
297.048645
 20
-162.954102
  0
LWPOLYLINE
  5
431
100
AcDbEntity
  8
LAYER01
370
    13
390
0
  6
Continuous
 62
   213
100
AcDbPolyline
 90
        2
 70
     0
 10
297.048706
 20
-158.459473
 42
0.626097
 10
297.048706
 20
-161.540771
  0
LWPOLYLINE
  5
432
100
AcDbEntity
  8
LAYER01
370
    13
390
0
  6
Continuous
 62
   213
100
AcDbPolyline
 90
        2
 70
     0
 10
300.048706
 20
-156.424316
 42
0.423414
 10
297.048645
 20
-157.046143
  0
LWPOLYLINE
  5
433
100
AcDbEntity
  8
LAYER01
370
    13
390
0
  6
Continuous
 62
   213
100
AcDbPolyline
 90
        2
 70
     0
 10
297.048706
 20
-162.954102
 42
0.423414
 10
300.048645
 20
-163.575684
  0
LWPOLYLINE
  5
434
100
AcDbEntity
  8
LAYER01
370
    35
390
0
  6
Continuous
 62
   134
100
AcDbPolyline
 90
        2
 70
     0
 10
302.048645
 20
-164.25
 10
310.048645
 20
-164.25
  0
LWPOLYLINE
  5
435
100
AcDbEntity
  8
LAYER01
370
    25
390
0
  6
DASHDOT
 62
    92
100
AcDbPolyline
 90
        2
 70
     0
 10
287.048645
 20
-125.254639
 10
287.048645
 20
-136.5
  0
LWPOLYLINE
  5
436
100
AcDbEntity
  8
LAYER01
370
    35
390
0
  6
Continuous
 62
   134
100
AcDbPolyline
 90
        2
 70
     0
 10
284.648682
 20
-132.0
 10
284.648682
 20
-134.0
  0
LWPOLYLINE
  5
437
100
AcDbEntity
  8
LAYER01
370
    35
390
0
  6
Continuous
 62
   134
100
AcDbPolyline
 90
        2
 70
     0
 10
289.448669
 20
-132.0
 10
289.448669
 20
-134.0
  0
LWPOLYLINE
  5
438
100
AcDbEntity
  8
LAYER01
370
    35
390
0
  6
Continuous
 62
   134
100
AcDbPolyline
 90
        2
 70
     0
 10
289.448669
 20
-132.0
 10
289.448669
 20
-134.0
  0
LWPOLYLINE
  5
439
100
AcDbEntity
  8
LAYER01
370
    35
390
0
  6
Continuous
 62
   134
100
AcDbPolyline
 90
        2
 70
     0
 10
284.648682
 20
-132.0
 10
284.648682
 20
-134.0
  0
LWPOLYLINE
  5
43A
100
AcDbEntity
  8
LAYER01
370
    35
390
0
  6
Continuous
 62
   134
100
AcDbPolyline
 90
        7
 70
     1
 10
283.048645
 20
-135.5
 10
291.048645
 20
-135.5
 42
0.414214
 10
292.048645
 20
-134.5
 10
292.048645
 20
-134.0
 10
282.048645
 20
-134.0
 10
282.048645
 20
-134.5
 42
0.414214
 10
283.048645
 20
-135.5
  0
LWPOLYLINE
  5
43B
100
AcDbEntity
  8
LAYER01
370
    35
390
0
  6
Continuous
 62
   134
100
AcDbPolyline
 90
        2
 70
     0
 10
284.094727
 20
-128.0
 10
290.002625
 20
-128.0
  0
LWPOLYLINE
  5
43C
100
AcDbEntity
  8
LAYER01
370
    13
390
0
  6
Continuous
 62
   213
100
AcDbPolyline
 90
        2
 70
     0
 10
288.589294
 20
-128.0
 42
0.626098
 10
285.507996
 20
-128.0
  0
LWPOLYLINE
  5
43D
100
AcDbEntity
  8
LAYER01
370
    13
390
0
  6
Continuous
 62
   213
100
AcDbPolyline
 90
        2
 70
     0
 10
284.094727
 20
-128.000244
 42
0.619378
 10
283.473022
 20
-130.000244
  0
LWPOLYLINE
  5
43E
100
AcDbEntity
  8
LAYER01
370
    13
390
0
  6
Continuous
 62
   213
100
AcDbPolyline
 90
        2
 70
     0
 10
290.62439
 20
-130.000244
 42
0.619378
 10
290.002625
 20
-128.000244
  0
LWPOLYLINE
  5
43F
100
AcDbEntity
  8
LAYER01
370
    35
390
0
  6
Continuous
 62
   134
100
AcDbPolyline
 90
        2
 70
     0
 10
284.168518
 20
-65.0
 10
284.168518
 20
0.0
  0
LWPOLYLINE
  5
440
100
AcDbEntity
  8
LAYER01
370
    35
390
0
  6
Continuous
 62
   134
100
AcDbPolyline
 90
        2
 70
     0
 10
269.168518
 20
-65.355469
 10
269.168518
 20
0.0
  0
LWPOLYLINE
  5
441
100
AcDbEntity
  8
LAYER01
370
    35
390
0
  6
Continuous
 62
   134
100
AcDbPolyline
 90
        2
 70
     0
 10
268.668518
 20
-65.855469
 10
268.668518
 20
0.0
  0
LWPOLYLINE
  5
442
100
AcDbEntity
  8
LAYER01
370
    35
390
0
  6
Continuous
 62
   134
100
AcDbPolyline
 90
        2
 70
     0
 10
253.668518
 20
-65.0
 10
253.668518
 20
0.0
  0
LWPOLYLINE
  5
443
100
AcDbEntity
  8
LAYER01
370
    35
390
0
  6
Continuous
 62
   134
100
AcDbPolyline
 90
        2
 70
     0
 10
284.168518
 20
-65.0
 10
253.668518
 20
-65.0
  0
LWPOLYLINE
  5
444
100
AcDbEntity
  8
LAYER01
370
    35
390
0
  6
Continuous
 62
   134
100
AcDbPolyline
 90
        2
 70
     0
 10
284.274048
 20
-65.855469
 10
268.668518
 20
-65.855469
  0
LWPOLYLINE
  5
445
100
AcDbEntity
  8
LAYER01
370
    35
390
0
  6
Continuous
 62
   134
100
AcDbPolyline
 90
        2
 70
     0
 10
284.274048
 20
-65.355469
 10
269.168518
 20
-65.355469
  0
LWPOLYLINE
  5
446
100
AcDbEntity
  8
LAYER01
370
    35
390
0
  6
Continuous
 62
   134
100
AcDbPolyline
 90
        3
 70
     0
 10
266.537354
 20
-69.692871
 10
239.537354
 20
-69.692871
 10
239.537354
 20
-36.789551
  0
LWPOLYLINE
  5
447
100
AcDbEntity
  8
LAYER01
370
    35
390
0
  6
Continuous
 62
   134
100
AcDbPolyline
 90
        2
 70
     0
 10
246.736816
 20
-71.544434
 10
243.034973
 20
-69.328125
  0
LWPOLYLINE
  5
448
100
AcDbEntity
  8
LAYER01
370
    13
390
0
  6
Continuous
 62
   213
100
AcDbPolyline
 90
        2
 70
     0
 10
241.575928
 20
-66.75415
 42
0.26371
 10
243.034973
 20
-69.328125
  0
LWPOLYLINE
  5
449
100
AcDbEntity
  8
LAYER01
370
    35
390
0
  6
Continuous
 62
   134
100
AcDbPolyline
 90
        2
 70
     0
 10
245.709473
 20
-73.260254
 10
242.00769
 20
-71.044189
  0
LWPOLYLINE
  5
44A
100
AcDbEntity
  8
LAYER01
370
    13
390
0
  6
Continuous
 62
   213
100
AcDbPolyline
 90
        2
 70
     0
 10
239.575928
 20
-66.75415
 42
0.26371
 10
242.00769
 20
-71.044189
  0
LWPOLYLINE
  5
44B
100
AcDbEntity
  8
LAYER01
370
    35
390
0
  6
Continuous
 62
   134
100
AcDbPolyline
 90
        2
 70
     0
 10
241.575928
 20
-66.75415
 10
241.575928
 20
-33.718018
  0
LWPOLYLINE
  5
44C
100
AcDbEntity
  8
LAYER01
370
    35
390
0
  6
Continuous
 62
   134
100
AcDbPolyline
 90
        2
 70
     0
 10
239.575928
 20
-66.75415
 10
239.575928
 20
-33.718018
  0
LWPOLYLINE
  5
44D
100
AcDbEntity
  8
LAYER01
370
    35
390
0
  6
Continuous
 62
   134
100
AcDbPolyline
 90
        2
 70
     0
 10
239.575928
 20
-33.718018
 10
241.575928
 20
-33.718018
  0
LWPOLYLINE
  5
44E
100
AcDbEntity
  8
LAYER01
370
    35
390
0
  6
Continuous
 62
   134
100
AcDbPolyline
 90
        2
 70
     0
 10
247.168518
 20
-75.834229
 10
247.168518
 20
-81.788574
  0
LWPOLYLINE
  5
44F
100
AcDbEntity
  8
LAYER01
370
    13
390
0
  6
Continuous
 62
   213
100
AcDbPolyline
 90
        2
 70
     0
 10
247.168518
 20
-75.834229
 42
0.26371
 10
245.709473
 20
-73.260254
  0
LWPOLYLINE
  5
450
100
AcDbEntity
  8
LAYER01
370
    13
390
0
  6
Continuous
 62
   213
100
AcDbPolyline
 90
        2
 70
     0
 10
249.168518
 20
-75.834229
 42
0.26371
 10
246.736755
 20
-71.544189
  0
LWPOLYLINE
  5
451
100
AcDbEntity
  8
LAYER01
370
    35
390
0
  6
Continuous
 62
   134
100
AcDbPolyline
 90
        2
 70
     0
 10
247.168518
 20
-81.788574
 10
249.168518
 20
-81.788574
  0
LWPOLYLINE
  5
452
100
AcDbEntity
  8
LAYER01
370
    25
390
0
  6
DASHDOT
 62
    92
100
AcDbPolyline
 90
        2
 70
     0
 10
246.843201
 20
-48.718018
 10
192.072327
 20
-48.718018
  0
INSERT
  5
461
100
AcDbEntity
  8
LAYER01
390
0
100
AcDbBlockReference
  2
HATCH-CM_U_84
 10
-5209.419922
 20
-983.849854
 30
0.0
  0
LWPOLYLINE
  5
462
100
AcDbEntity
  8
LAYER01
370
    35
390
0
  6
Continuous
 62
   134
100
AcDbPolyline
 90
        2
 70
     0
 10
279.168518
 20
-104.300049
 10
269.168518
 20
-104.300049
  0
LWPOLYLINE
  5
463
100
AcDbEntity
  8
LAYER01
370
    35
390
0
  6
Continuous
 62
   134
100
AcDbPolyline
 90
        2
 70
     0
 10
279.168518
 20
-89.300049
 10
269.168518
 20
-89.300049
  0
LWPOLYLINE
  5
464
100
AcDbEntity
  8
LAYER01
370
    13
390
0
  6
Continuous
 62
   213
100
AcDbPolyline
 90
        2
 70
     0
 10
268.289856
 20
-70.878906
 42
0.330723
 10
274.168579
 20
-68.700195
  0
LWPOLYLINE
  5
465
100
AcDbEntity
  8
LAYER01
370
    13
390
0
  6
Continuous
 62
   213
100
AcDbPolyline
 90
        2
 70
     0
 10
269.113464
 20
-72.427734
 42
0.28687
 10
274.168518
 20
-70.078857
  0
LWPOLYLINE
  5
466
100
AcDbEntity
  8
LAYER01
370
    35
390
0
  6
Continuous
 62
   134
100
AcDbPolyline
 90
        2
 70
     0
 10
266.168518
 20
-70.0
 10
274.168518
 20
-67.0
  0
LWPOLYLINE
  5
467
100
AcDbEntity
  8
LAYER01
370
    13
390
0
  6
Continuous
 62
   213
100
AcDbPolyline
 90
        2
 70
     0
 10
267.49939
 20
-70.311523
 42
0.106528
 10
274.168518
 20
-67.737061
  0
LWPOLYLINE
  5
468
100
AcDbEntity
  8
LAYER01
370
    25
390
0
  6
DASHDOT
 62
    92
100
AcDbPolyline
 90
        7
 70
     0
 10
0.0
 20
-100.0
 10
-3.0
 20
-103.0
 10
0.0
 20
-106.0
 10
0.0
 20
-126.0
 10
3.0
 20
-129.0
 10
0.0
 20
-132.0
 10
0.0
 20
-152.0
  0
LWPOLYLINE
  5
469
100
AcDbEntity
  8
LAYER01
370
    25
390
0
  6
DASHDOT
 62
    92
100
AcDbPolyline
 90
        7
 70
     0
 10
0.0
 20
-152.0
 10
-3.0
 20
-155.0
 10
0.0
 20
-158.0
 10
0.0
 20
-178.0
 10
3.0
 20
-181.0
 10
0.0
 20
-184.0
 10
0.0
 20
-204.0
  0
LWPOLYLINE
  5
46A
100
AcDbEntity
  8
LAYER01
370
    25
390
0
  6
DASHDOT
 62
    92
100
AcDbPolyline
 90
        7
 70
     0
 10
0.0
 20
-204.0
 10
-3.0
 20
-207.0
 10
0.0
 20
-210.0
 10
0.0
 20
-230.0
 10
3.0
 20
-233.0
 10
0.0
 20
-236.0
 10
0.0
 20
-241.247803
  0
INSERT
  5
47A
100
AcDbEntity
  8
LAYER01
390
0
100
AcDbBlockReference
  2
HATCH-CN_U_84
 10
-5209.419922
 20
-983.849854
 30
0.0
  0
LWPOLYLINE
  5
47B
100
AcDbEntity
  8
LAYER01
370
    25
390
0
  6
DASHDOT
 62
    92
100
AcDbPolyline
 90
        2
 70
     0
 10
246.843201
 20
-48.718018
 10
192.072327
 20
-48.718018
  0
LWPOLYLINE
  5
47C
100
AcDbEntity
  8
LAYER01
370
    25
390
0
  6
DASHDOT
 62
    92
100
AcDbPolyline
 90
        2
 70
     0
 10
311.085754
 20
-78.48999
 10
256.31488
 20
-78.48999
  0
CIRCLE
  5
47D
100
AcDbEntity
  8
LAYER01
370
    35
390
0
  6
Continuous
 62
   134
100
AcDbCircle
 10
274.145813
 20
-76.530518
 30
0.0
 40
5.0
  0
LWPOLYLINE
  5
47E
100
AcDbEntity
  8
LAYER01
370
    25
390
0
  6
Continuous
 62
    92
100
AcDbPolyline
 90
        2
 70
     0
 10
274.468811
 20
-81.812988
 10
269.264526
 20
-82.118896
  0
LWPOLYLINE
  5
47F
100
AcDbEntity
  8
LAYER01
370
    25
390
0
  6
Continuous
 62
    92
100
AcDbPolyline
 90
        2
 70
     0
 10
269.264526
 20
-82.118896
 10
274.009583
 20
-83.623047
  0
LWPOLYLINE
  5
480
100
AcDbEntity
  8
LAYER01
370
    25
390
0
  6
Continuous
 62
    92
100
AcDbPolyline
 90
        2
 70
     0
 10
274.009583
 20
-83.623047
 10
269.264526
 20
-84.948975
  0
LWPOLYLINE
  5
481
100
AcDbEntity
  8
LAYER01
370
    25
390
0
  6
Continuous
 62
    92
100
AcDbPolyline
 90
        2
 70
     0
 10
269.264526
 20
-84.948975
 10
274.315735
 20
-86.172607
  0
LWPOLYLINE
  5
482
100
AcDbEntity
  8
LAYER01
370
    25
390
0
  6
Continuous
 62
    92
100
AcDbPolyline
 90
        2
 70
     0
 10
274.315735
 20
-86.172607
 10
269.239014
 20
-87.396484
  0
LWPOLYLINE
  5
483
100
AcDbEntity
  8
LAYER01
370
    25
390
0
  6
Continuous
 62
    92
100
AcDbPolyline
 90
        2
 70
     0
 10
269.239014
 20
-87.396484
 10
274.392273
 20
-88.033936
  0
LWPOLYLINE
  5
484
100
AcDbEntity
  8
LAYER01
370
    25
390
0
  6
Continuous
 62
    92
100
AcDbPolyline
 90
        2
 70
     0
 10
274.392273
 20
-88.033936
 10
269.392029
 20
-89.155762
  0
INSERT
  5
49A
100
AcDbEntity
  8
LAYER01
390
0
100
AcDbBlockReference
  2
HATCH-CO_U_84
 10
-5209.419922
 20
-983.849854
 30
0.0
  0
LWPOLYLINE
  5
49B
100
AcDbEntity
  8
LAYER02
370
    18
390
0
  6
Continuous
 62
     7
100
AcDbPolyline
 90
        2
 70
     0
 10
138.068604
 20
-207.600098
 10
142.168579
 20
-207.600098
  0
LWPOLYLINE
  5
49D
100
AcDbEntity
  8
LAYER02
370
    18
390
0
  6
Continuous
 62
     7
100
AcDbPolyline
 90
        2
 70
     0
 10
138.068604
 20
-212.400146
 10
142.168579
 20
-212.400146
  0
LWPOLYLINE
  5
49E
100
AcDbEntity
  8
LAYER02
370
    18
390
0
  6
Continuous
 62
     7
100
AcDbPolyline
 90
        7
 70
     1
 10
143.668579
 20
-206.25
 10
143.668579
 20
-213.75
 42
-0.414214
 10
142.668579
 20
-214.75
 10
142.168579
 20
-214.75
 10
142.168579
 20
-205.25
 10
142.668579
 20
-205.25
 42
-0.414214
 10
143.668579
 20
-206.25
  0
LWPOLYLINE
  5
49F
100
AcDbEntity
  8
LAYER02
370
    18
390
0
  6
Continuous
 62
     7
100
AcDbPolyline
 90
        2
 70
     0
 10
135.024536
 20
-206.800293
 10
135.024536
 20
-212.708008
  0
LWPOLYLINE
  5
4A0
100
AcDbEntity
  8
LAYER02
370
    13
390
0
  6
Continuous
 62
   213
100
AcDbPolyline
 90
        2
 70
     0
 10
135.024536
 20
-208.213623
 42
0.626097
 10
135.024536
 20
-211.294922
  0
LWPOLYLINE
  5
4A1
100
AcDbEntity
  8
LAYER02
370
    13
390
0
  6
Continuous
 62
   213
100
AcDbPolyline
 90
        2
 70
     0
 10
138.024536
 20
-206.178467
 42
0.423414
 10
135.024414
 20
-206.800293
  0
LWPOLYLINE
  5
4A2
100
AcDbEntity
  8
LAYER02
370
    13
390
0
  6
Continuous
 62
   213
100
AcDbPolyline
 90
        2
 70
     0
 10
135.024536
 20
-212.708008
 42
0.423414
 10
138.024536
 20
-213.329834
  0
INSERT
  5
4AF
100
AcDbEntity
  8
LAYER01
390
0
100
AcDbBlockReference
  2
_BOHR_FV_U_84
 10
142.168579
 20
-210.0
 30
0.0
 50
270.0
  0
LWPOLYLINE
  5
4B0
100
AcDbEntity
  8
LAYER01
370
    25
390
0
  6
Continuous
 62
    92
100
AcDbPolyline
 90
        2
 70
     0
 10
118.736938
 20
-264.269531
 10
187.084961
 20
-264.269531
  0
LWPOLYLINE
  5
4B1
100
AcDbEntity
  8
LAYER01
370
    35
390
0
  6
Continuous
 62
   134
100
AcDbPolyline
 90
        2
 70
     0
 10
187.084961
 20
-264.269531
 10
202.075562
 20
-238.0
  0
INSERT
  5
4C1
100
AcDbEntity
  8
LAYER01
390
0
100
AcDbBlockReference
  2
_D---BOP_U_84
 10
-5209.419922
 20
-983.849854
 30
0.0
  0
INSERT
  5
4DA
100
AcDbEntity
  8
LAYER01
390
0
100
AcDbBlockReference
  2
_D---BOQ_U_84
 10
-5209.419922
 20
-983.849854
 30
0.0
  0
INSERT
  5
4E1
100
AcDbEntity
  8
LAYER01
390
0
100
AcDbBlockReference
  2
T-ACHTER_U_84
 10
0.5802
 20
-300.849854
 30
0.0
  0
INSERT
  5
4E6
100
AcDbEntity
  8
LAYER01
390
0
100
AcDbBlockReference
  2
T-ROCKP__U_M_84
 10
164.302246
 20
-264.269531
 30
0.0
 50
180.0
  0
INSERT
  5
4EB
100
AcDbEntity
  8
LAYER01
390
0
100
AcDbBlockReference
  2
T-VENTIL_U_84
 10
5.5802
 20
-215.849854
 30
0.0
  0
LWPOLYLINE
  5
4EC
102
{ACAD_REACTORS
330
4ED
102
}
100
AcDbEntity
  8
HATCH_REACTORS
390
0
100
AcDbPolyline
 90
        4
 70
     1
 10
310.048645
 20
-155.75
 10
302.048645
 20
-155.75
 10
302.048645
 20
-135.0
 10
310.048645
 20
-135.0
  0
HATCH
  5
4ED
100
AcDbEntity
  8
LAYER49
370
    13
390
0
  6
Continuous
 62
   213
100
AcDbHatch
 10
0.0
 20
0.0
 30
0.0
210
0.0
220
0.0
230
1.0
  2
~A--G#X~
 70
     0
 71
     1
 91
        1
 92
        2
 72
     0
 73
     1
 93
        4
 10
310.04864501953125
 20
-155.75
 10
302.04864501953125
 20
-155.75
 10
302.04864501953125
 20
-135.0
 10
310.04864501953125
 20
-135.0
 97
        1
330
4EC
 75
     0
 76
     0
 52
0.0
 41
1.0
 77
     0
 78
     1
 53
180.0
 43
-1415.099854
 44
-890.531555
 45
-0.0
 46
-0.300000011920929
 79
     0
 98
        0
  0
LWPOLYLINE
  5
4EF
100
AcDbEntity
  8
LAYER49
370
    25
390
0
  6
Continuous
 62
    92
100
AcDbPolyline
 90
        2
 70
     0
 10
302.048645
 20
-155.75
 10
302.048645
 20
-135.0
  0
LWPOLYLINE
  5
4F0
100
AcDbEntity
  8
LAYER49
370
    25
390
0
  6
Continuous
 62
    92
100
AcDbPolyline
 90
        2
 70
     0
 10
310.048645
 20
-135.0
 10
310.048645
 20
-155.75
  0
LWPOLYLINE
  5
4F1
100
AcDbEntity
  8
LAYER49
370
    25
390
0
  6
Continuous
 62
    92
100
AcDbPolyline
 90
        2
 70
     0
 10
310.048645
 20
-155.75
 10
302.048645
 20
-155.75
  0
LWPOLYLINE
  5
4F2
100
AcDbEntity
  8
LAYER49
370
    25
390
0
  6
Continuous
 62
    92
100
AcDbPolyline
 90
        2
 70
     0
 10
302.048645
 20
-135.0
 10
310.048645
 20
-135.0
  0
LWPOLYLINE
  5
4F3
102
{ACAD_REACTORS
330
4F4
102
}
100
AcDbEntity
  8
HATCH_REACTORS
390
0
100
AcDbPolyline
 90
        4
 70
     1
 10
310.048645
 20
-196.600098
 10
302.048645
 20
-196.600098
 10
302.048645
 20
-164.25
 10
310.048645
 20
-164.25
  0
HATCH
  5
4F4
100
AcDbEntity
  8
LAYER49
370
    13
390
0
  6
Continuous
 62
   213
100
AcDbHatch
 10
0.0
 20
0.0
 30
0.0
210
0.0
220
0.0
230
1.0
  2
~A--G#X~
 70
     0
 71
     1
 91
        1
 92
        2
 72
     0
 73
     1
 93
        4
 10
310.04864501953125
 20
-196.60009765625
 10
302.04864501953125
 20
-196.60009765625
 10
302.04864501953125
 20
-164.25
 10
310.04864501953125
 20
-164.25
 97
        1
330
4F3
 75
     0
 76
     0
 52
0.0
 41
1.0
 77
     0
 78
     1
 53
180.0
 43
-1374.249756
 44
-890.531555
 45
-0.0
 46
-0.300000011920929
 79
     0
 98
        0
  0
LWPOLYLINE
  5
4F5
100
AcDbEntity
  8
LAYER49
370
    25
390
0
  6
Continuous
 62
    92
100
AcDbPolyline
 90
        2
 70
     0
 10
302.048645
 20
-196.600098
 10
302.048645
 20
-164.25
  0
LWPOLYLINE
  5
4F6
100
AcDbEntity
  8
LAYER49
370
    25
390
0
  6
Continuous
 62
    92
100
AcDbPolyline
 90
        2
 70
     0
 10
310.048645
 20
-164.25
 10
310.048645
 20
-196.600098
  0
LWPOLYLINE
  5
4F7
100
AcDbEntity
  8
LAYER49
370
    25
390
0
  6
Continuous
 62
    92
100
AcDbPolyline
 90
        2
 70
     0
 10
310.048645
 20
-196.600098
 10
302.048645
 20
-196.600098
  0
LWPOLYLINE
  5
4F8
100
AcDbEntity
  8
LAYER49
370
    25
390
0
  6
Continuous
 62
    92
100
AcDbPolyline
 90
        2
 70
     0
 10
302.048645
 20
-164.25
 10
310.048645
 20
-164.25
  0
LWPOLYLINE
  5
4F9
102
{ACAD_REACTORS
330
4FA
102
}
100
AcDbEntity
  8
HATCH_REACTORS
390
0
100
AcDbPolyline
 90
        4
 70
     1
 10
310.048645
 20
-224.0
 10
302.048645
 20
-224.0
 10
302.048645
 20
-201.400146
 10
310.048645
 20
-201.400146
  0
HATCH
  5
4FA
100
AcDbEntity
  8
LAYER49
370
    13
390
0
  6
Continuous
 62
   213
100
AcDbHatch
 10
0.0
 20
0.0
 30
0.0
210
0.0
220
0.0
230
1.0
  2
~A--G#X~
 70
     0
 71
     1
 91
        1
 92
        2
 72
     0
 73
     1
 93
        4
 10
310.04864501953125
 20
-224.0
 10
302.04864501953125
 20
-224.0
 10
302.04864501953125
 20
-201.400146484375
 10
310.04864501953125
 20
-201.400146484375
 97
        1
330
4F9
 75
     0
 76
     0
 52
0.0
 41
1.0
 77
     0
 78
     1
 53
180.0
 43
-1346.849854
 44
-890.531555
 45
-0.0
 46
-0.300000011920929
 79
     0
 98
        0
  0
LWPOLYLINE
  5
4FB
100
AcDbEntity
  8
LAYER49
370
    25
390
0
  6
Continuous
 62
    92
100
AcDbPolyline
 90
        2
 70
     0
 10
302.048645
 20
-224.0
 10
302.048645
 20
-201.400146
  0
LWPOLYLINE
  5
4FC
100
AcDbEntity
  8
LAYER49
370
    25
390
0
  6
Continuous
 62
    92
100
AcDbPolyline
 90
        2
 70
     0
 10
310.048645
 20
-201.400146
 10
310.048645
 20
-224.0
  0
LWPOLYLINE
  5
4FD
100
AcDbEntity
  8
LAYER49
370
    25
390
0
  6
Continuous
 62
    92
100
AcDbPolyline
 90
        2
 70
     0
 10
310.048645
 20
-224.0
 10
302.048645
 20
-224.0
  0
LWPOLYLINE
  5
4FE
100
AcDbEntity
  8
LAYER49
370
    25
390
0
  6
Continuous
 62
    92
100
AcDbPolyline
 90
        2
 70
     0
 10
302.048645
 20
-201.400146
 10
310.048645
 20
-201.400146
  0
LWPOLYLINE
  5
4FF
102
{ACAD_REACTORS
330
500
102
}
100
AcDbEntity
  8
HATCH_REACTORS
390
0
100
AcDbPolyline
 90
        4
 70
     1
 10
289.048645
 20
-238.0
 10
289.048645
 20
-230.0
 10
313.048645
 20
-230.0
 10
313.048645
 20
-238.0
  0
HATCH
  5
500
100
AcDbEntity
  8
LAYER49
370
    13
390
0
  6
Continuous
 62
   213
100
AcDbHatch
 10
0.0
 20
0.0
 30
0.0
210
0.0
220
0.0
230
1.0
  2
~A--G#X~
 70
     0
 71
     1
 91
        1
 92
        2
 72
     0
 73
     1
 93
        4
 10
289.04864501953125
 20
-238.0
 10
289.04864501953125
 20
-230.0
 10
313.04864501953125
 20
-230.0
 10
313.04864501953125
 20
-238.0
 97
        1
330
4FF
 75
     0
 76
     0
 52
0.0
 41
1.0
 77
     0
 78
     1
 53
90.0
 43
-1332.849854
 44
-911.531555
 45
-0.300000011920929
 46
0.0
 79
     0
 98
        0
  0
LWPOLYLINE
  5
501
100
AcDbEntity
  8
LAYER49
370
    25
390
0
  6
Continuous
 62
    92
100
AcDbPolyline
 90
        2
 70
     0
 10
289.048645
 20
-230.0
 10
313.048645
 20
-230.0
  0
LWPOLYLINE
  5
502
100
AcDbEntity
  8
LAYER49
370
    25
390
0
  6
Continuous
 62
    92
100
AcDbPolyline
 90
        2
 70
     0
 10
313.048645
 20
-238.0
 10
289.048645
 20
-238.0
  0
LWPOLYLINE
  5
503
100
AcDbEntity
  8
LAYER49
370
    25
390
0
  6
Continuous
 62
    92
100
AcDbPolyline
 90
        2
 70
     0
 10
289.048645
 20
-238.0
 10
289.048645
 20
-230.0
  0
LWPOLYLINE
  5
504
100
AcDbEntity
  8
LAYER49
370
    25
390
0
  6
Continuous
 62
    92
100
AcDbPolyline
 90
        2
 70
     0
 10
313.048645
 20
-230.0
 10
313.048645
 20
-238.0
  0
LWPOLYLINE
  5
505
102
{ACAD_REACTORS
330
506
102
}
100
AcDbEntity
  8
HATCH_REACTORS
390
0
100
AcDbPolyline
 90
        4
 70
     1
 10
158.969238
 20
-238.0
 10
158.969238
 20
-230.0
 10
281.048645
 20
-230.0
 10
281.048645
 20
-238.0
  0
HATCH
  5
506
100
AcDbEntity
  8
LAYER49
370
    13
390
0
  6
Continuous
 62
   213
100
AcDbHatch
 10
0.0
 20
0.0
 30
0.0
210
0.0
220
0.0
230
1.0
  2
~A--G#X~
 70
     0
 71
     1
 91
        1
 92
        2
 72
     0
 73
     1
 93
        4
 10
158.96923828125
 20
-238.0
 10
158.96923828125
 20
-230.0
 10
281.04864501953125
 20
-230.0
 10
281.04864501953125
 20
-238.0
 97
        1
330
505
 75
     0
 76
     0
 52
0.0
 41
1.0
 77
     0
 78
     1
 53
90.0
 43
-1332.849854
 44
-1041.610962
 45
-0.300000011920929
 46
0.0
 79
     0
 98
        0
  0
LWPOLYLINE
  5
507
100
AcDbEntity
  8
LAYER49
370
    25
390
0
  6
Continuous
 62
    92
100
AcDbPolyline
 90
        2
 70
     0
 10
158.969238
 20
-230.0
 10
281.048645
 20
-230.0
  0
LWPOLYLINE
  5
508
100
AcDbEntity
  8
LAYER49
370
    25
390
0
  6
Continuous
 62
    92
100
AcDbPolyline
 90
        2
 70
     0
 10
281.048645
 20
-238.0
 10
158.969238
 20
-238.0
  0
LWPOLYLINE
  5
509
100
AcDbEntity
  8
LAYER49
370
    25
390
0
  6
Continuous
 62
    92
100
AcDbPolyline
 90
        2
 70
     0
 10
158.969238
 20
-238.0
 10
158.969238
 20
-230.0
  0
LWPOLYLINE
  5
50A
100
AcDbEntity
  8
LAYER49
370
    25
390
0
  6
Continuous
 62
    92
100
AcDbPolyline
 90
        2
 70
     0
 10
281.048645
 20
-230.0
 10
281.048645
 20
-238.0
  0
LWPOLYLINE
  5
50B
102
{ACAD_REACTORS
330
50C
102
}
100
AcDbEntity
  8
HATCH_REACTORS
390
0
100
AcDbPolyline
 90
        4
 70
     1
 10
0.0
 20
-238.0
 10
0.0
 20
-230.0
 10
150.969238
 20
-230.0
 10
150.969238
 20
-238.0
  0
HATCH
  5
50C
100
AcDbEntity
  8
LAYER49
370
    13
390
0
  6
Continuous
 62
   213
100
AcDbHatch
 10
0.0
 20
0.0
 30
0.0
210
0.0
220
0.0
230
1.0
  2
~A--G#X~
 70
     0
 71
     1
 91
        1
 92
        2
 72
     0
 73
     1
 93
        4
 10
0.0
 20
-238.0
 10
0.0
 20
-230.0
 10
150.96923828125
 20
-230.0
 10
150.96923828125
 20
-238.0
 97
        1
330
50B
 75
     0
 76
     0
 52
0.0
 41
1.0
 77
     0
 78
     1
 53
90.0
 43
-1332.849854
 44
-1200.5802
 45
-0.300000011920929
 46
0.0
 79
     0
 98
        0
  0
LWPOLYLINE
  5
50D
100
AcDbEntity
  8
LAYER49
370
    25
390
0
  6
Continuous
 62
    92
100
AcDbPolyline
 90
        2
 70
     0
 10
0.0
 20
-230.0
 10
150.969238
 20
-230.0
  0
LWPOLYLINE
  5
50E
100
AcDbEntity
  8
LAYER49
370
    25
390
0
  6
Continuous
 62
    92
100
AcDbPolyline
 90
        2
 70
     0
 10
150.969238
 20
-238.0
 10
0.0
 20
-238.0
  0
LWPOLYLINE
  5
50F
100
AcDbEntity
  8
LAYER49
370
    25
390
0
  6
Continuous
 62
    92
100
AcDbPolyline
 90
        2
 70
     0
 10
0.0
 20
-238.0
 10
0.0
 20
-230.0
  0
LWPOLYLINE
  5
510
100
AcDbEntity
  8
LAYER49
370
    25
390
0
  6
Continuous
 62
    92
100
AcDbPolyline
 90
        2
 70
     0
 10
150.969238
 20
-230.0
 10
150.969238
 20
-238.0
  0
ENDBLK
  5
511
100
AcDbEntity
  8
0
390
0
100
AcDbBlockEnd
  0
BLOCK
  5
34
100
AcDbEntity
  8
0
390
0
100
AcDbBlockBegin
  2
HATCH-CA_U_84
 70
     0
 10
0.0
 20
0.0
 30
0.0
  3
HATCH-CA_U_84
  1

  0
LWPOLYLINE
  5
35
100
AcDbEntity
  8
LAYER01
370
    13
390
0
  6
Continuous
 62
   213
100
AcDbPolyline
 90
        2
 70
     0
 10
5478.588379
 20
891.479492
 10
5476.588379
 20
893.479492
  0
LWPOLYLINE
  5
37
100
AcDbEntity
  8
LAYER01
370
    13
390
0
  6
Continuous
 62
   213
100
AcDbPolyline
 90
        2
 70
     0
 10
5460.588379
 20
909.479492
 10
5458.644531
 20
911.423096
  0
LWPOLYLINE
  5
38
100
AcDbEntity
  8
LAYER01
370
    13
390
0
  6
Continuous
 62
   213
100
AcDbPolyline
 90
        2
 70
     0
 10
5478.588379
 20
886.989258
 10
5476.588379
 20
888.989258
  0
LWPOLYLINE
  5
39
100
AcDbEntity
  8
LAYER01
370
    13
390
0
  6
Continuous
 62
   213
100
AcDbPolyline
 90
        2
 70
     0
 10
5460.588379
 20
904.989258
 10
5458.588379
 20
906.989258
  0
LWPOLYLINE
  5
3A
100
AcDbEntity
  8
LAYER01
370
    13
390
0
  6
Continuous
 62
   213
100
AcDbPolyline
 90
        2
 70
     0
 10
5476.92334
 20
884.164307
 10
5475.237793
 20
885.849854
  0
LWPOLYLINE
  5
3B
100
AcDbEntity
  8
LAYER01
370
    13
390
0
  6
Continuous
 62
   213
100
AcDbPolyline
 90
        2
 70
     0
 10
5460.588379
 20
900.499268
 10
5458.588379
 20
902.499268
  0
LWPOLYLINE
  5
3C
100
AcDbEntity
  8
LAYER01
370
    13
390
0
  6
Continuous
 62
   213
100
AcDbPolyline
 90
        2
 70
     0
 10
5472.747559
 20
883.849854
 10
5470.747559
 20
885.849854
  0
LWPOLYLINE
  5
3D
100
AcDbEntity
  8
LAYER01
370
    13
390
0
  6
Continuous
 62
   213
100
AcDbPolyline
 90
        2
 70
     0
 10
5460.588379
 20
896.009033
 10
5458.588379
 20
898.009033
  0
LWPOLYLINE
  5
3E
100
AcDbEntity
  8
LAYER01
370
    13
390
0
  6
Continuous
 62
   213
100
AcDbPolyline
 90
        2
 70
     0
 10
5468.257324
 20
883.849854
 10
5466.257324
 20
885.849854
  0
LWPOLYLINE
  5
3F
100
AcDbEntity
  8
LAYER01
370
    13
390
0
  6
Continuous
 62
   213
100
AcDbPolyline
 90
        2
 70
     0
 10
5460.588379
 20
891.518799
 10
5458.588379
 20
893.518799
  0
LWPOLYLINE
  5
40
100
AcDbEntity
  8
LAYER01
370
    13
390
0
  6
Continuous
 62
   213
100
AcDbPolyline
 90
        2
 70
     0
 10
5463.767578
 20
883.849854
 10
5461.767578
 20
885.849854
  0
LWPOLYLINE
  5
41
100
AcDbEntity
  8
LAYER01
370
    13
390
0
  6
Continuous
 62
   213
100
AcDbPolyline
 90
        2
 70
     0
 10
5460.588379
 20
887.028809
 10
5458.588379
 20
889.028809
  0
LWPOLYLINE
  5
42
100
AcDbEntity
  8
LAYER01
370
    13
390
0
  6
Continuous
 62
   213
100
AcDbPolyline
 90
        2
 70
     0
 10
5478.588379
 20
895.969482
 10
5476.588379
 20
897.969482
  0
LWPOLYLINE
  5
43
100
AcDbEntity
  8
LAYER01
370
    13
390
0
  6
Continuous
 62
   213
100
AcDbPolyline
 90
        2
 70
     0
 10
5462.708008
 20
911.849854
 10
5460.811035
 20
913.746826
  0
LWPOLYLINE
  5
44
100
AcDbEntity
  8
LAYER01
370
    13
390
0
  6
Continuous
 62
   213
100
AcDbPolyline
 90
        2
 70
     0
 10
5478.588379
 20
900.459717
 10
5476.588379
 20
902.459717
  0
LWPOLYLINE
  5
45
100
AcDbEntity
  8
LAYER01
370
    13
390
0
  6
Continuous
 62
   213
100
AcDbPolyline
 90
        2
 70
     0
 10
5467.198242
 20
911.849854
 10
5465.198242
 20
913.849854
  0
LWPOLYLINE
  5
46
100
AcDbEntity
  8
LAYER01
370
    13
390
0
  6
Continuous
 62
   213
100
AcDbPolyline
 90
        2
 70
     0
 10
5478.588379
 20
904.949707
 10
5476.588379
 20
906.949707
  0
LWPOLYLINE
  5
47
100
AcDbEntity
  8
LAYER01
370
    13
390
0
  6
Continuous
 62
   213
100
AcDbPolyline
 90
        2
 70
     0
 10
5471.688477
 20
911.849854
 10
5469.688477
 20
913.849854
  0
LWPOLYLINE
  5
48
100
AcDbEntity
  8
LAYER01
370
    13
390
0
  6
Continuous
 62
   213
100
AcDbPolyline
 90
        2
 70
     0
 10
5478.588379
 20
909.439941
 10
5474.178711
 20
913.849854
  0
ENDBLK
  5
49
100
AcDbEntity
  8
0
390
0
100
AcDbBlockEnd
  0
BLOCK
  5
4C
100
AcDbEntity
  8
0
390
0
100
AcDbBlockBegin
  2
HATCH-CB_U_84
 70
     0
 10
0.0
 20
0.0
 30
0.0
  3
HATCH-CB_U_84
  1

  0
LWPOLYLINE
  5
4D
100
AcDbEntity
  8
LAYER01
370
    13
390
0
  6
Continuous
 62
   213
100
AcDbPolyline
 90
        2
 70
     0
 10
5456.837891
 20
886.424072
 10
5456.837891
 20
887.376465
  0
LWPOLYLINE
  5
4E
100
AcDbEntity
  8
LAYER01
370
    13
390
0
  6
Continuous
 62
   213
100
AcDbPolyline
 90
        2
 70
     0
 10
5456.837891
 20
890.233887
 10
5456.837891
 20
891.186523
  0
LWPOLYLINE
  5
4F
100
AcDbEntity
  8
LAYER01
370
    13
390
0
  6
Continuous
 62
   213
100
AcDbPolyline
 90
        2
 70
     0
 10
5456.837891
 20
894.043945
 10
5456.837891
 20
894.996338
  0
LWPOLYLINE
  5
50
100
AcDbEntity
  8
LAYER01
370
    13
390
0
  6
Continuous
 62
   213
100
AcDbPolyline
 90
        2
 70
     0
 10
5456.837891
 20
897.854004
 10
5456.837891
 20
898.806396
  0
LWPOLYLINE
  5
51
100
AcDbEntity
  8
LAYER01
370
    13
390
0
  6
Continuous
 62
   213
100
AcDbPolyline
 90
        3
 70
     0
 10
5456.837891
 20
901.664063
 10
5456.837891
 20
902.061279
 10
5456.837891
 20
902.616455
  0
LWPOLYLINE
  5
52
100
AcDbEntity
  8
LAYER01
370
    13
390
0
  6
Continuous
 62
   213
100
AcDbPolyline
 90
        2
 70
     0
 10
5456.837891
 20
905.473877
 10
5456.837891
 20
906.426514
  0
LWPOLYLINE
  5
53
100
AcDbEntity
  8
LAYER01
370
    13
390
0
  6
Continuous
 62
   213
100
AcDbPolyline
 90
        2
 70
     0
 10
5456.837891
 20
909.283936
 10
5456.837891
 20
910.236572
  0
LWPOLYLINE
  5
54
100
AcDbEntity
  8
LAYER01
370
    13
390
0
  6
Continuous
 62
   213
100
AcDbPolyline
 90
        2
 70
     0
 10
5456.837891
 20
913.093994
 10
5456.837891
 20
914.046387
  0
LWPOLYLINE
  5
55
100
AcDbEntity
  8
LAYER01
370
    13
390
0
  6
Continuous
 62
   213
100
AcDbPolyline
 90
        2
 70
     0
 10
5454.932617
 20
884.519043
 10
5454.932617
 20
885.471436
  0
LWPOLYLINE
  5
56
100
AcDbEntity
  8
LAYER01
370
    13
390
0
  6
Continuous
 62
   213
100
AcDbPolyline
 90
        2
 70
     0
 10
5454.932617
 20
888.328857
 10
5454.932617
 20
889.281494
  0
LWPOLYLINE
  5
57
100
AcDbEntity
  8
LAYER01
370
    13
390
0
  6
Continuous
 62
   213
100
AcDbPolyline
 90
        2
 70
     0
 10
5454.932617
 20
892.138916
 10
5454.932617
 20
893.091553
  0
LWPOLYLINE
  5
58
100
AcDbEntity
  8
LAYER01
370
    13
390
0
  6
Continuous
 62
   213
100
AcDbPolyline
 90
        2
 70
     0
 10
5454.932617
 20
895.948975
 10
5454.932617
 20
896.901367
  0
LWPOLYLINE
  5
59
100
AcDbEntity
  8
LAYER01
370
    13
390
0
  6
Continuous
 62
   213
100
AcDbPolyline
 90
        2
 70
     0
 10
5454.932617
 20
899.759033
 10
5454.932617
 20
900.711426
  0
LWPOLYLINE
  5
5A
100
AcDbEntity
  8
LAYER01
370
    13
390
0
  6
Continuous
 62
   213
100
AcDbPolyline
 90
        2
 70
     0
 10
5454.932617
 20
903.568848
 10
5454.932617
 20
904.521484
  0
LWPOLYLINE
  5
5B
100
AcDbEntity
  8
LAYER01
370
    13
390
0
  6
Continuous
 62
   213
100
AcDbPolyline
 90
        2
 70
     0
 10
5454.932617
 20
907.378906
 10
5454.932617
 20
908.331543
  0
LWPOLYLINE
  5
5C
100
AcDbEntity
  8
LAYER01
370
    13
390
0
  6
Continuous
 62
   213
100
AcDbPolyline
 90
        2
 70
     0
 10
5454.932617
 20
911.188965
 10
5454.932617
 20
912.141357
  0
LWPOLYLINE
  5
5D
100
AcDbEntity
  8
LAYER01
370
    13
390
0
  6
Continuous
 62
   213
100
AcDbPolyline
 90
        2
 70
     0
 10
5453.027832
 20
886.424072
 10
5453.027832
 20
887.376465
  0
LWPOLYLINE
  5
5E
100
AcDbEntity
  8
LAYER01
370
    13
390
0
  6
Continuous
 62
   213
100
AcDbPolyline
 90
        2
 70
     0
 10
5453.027832
 20
890.233887
 10
5453.027832
 20
891.186523
  0
LWPOLYLINE
  5
5F
100
AcDbEntity
  8
LAYER01
370
    13
390
0
  6
Continuous
 62
   213
100
AcDbPolyline
 90
        2
 70
     0
 10
5453.027832
 20
894.043945
 10
5453.027832
 20
894.996338
  0
LWPOLYLINE
  5
60
100
AcDbEntity
  8
LAYER01
370
    13
390
0
  6
Continuous
 62
   213
100
AcDbPolyline
 90
        2
 70
     0
 10
5453.027832
 20
897.854004
 10
5453.027832
 20
898.806396
  0
LWPOLYLINE
  5
61
100
AcDbEntity
  8
LAYER01
370
    13
390
0
  6
Continuous
 62
   213
100
AcDbPolyline
 90
        2
 70
     0
 10
5453.027832
 20
901.664063
 10
5453.027832
 20
902.616455
  0
LWPOLYLINE
  5
62
100
AcDbEntity
  8
LAYER01
370
    13
390
0
  6
Continuous
 62
   213
100
AcDbPolyline
 90
        2
 70
     0
 10
5453.027832
 20
905.473877
 10
5453.027832
 20
906.426514
  0
LWPOLYLINE
  5
63
100
AcDbEntity
  8
LAYER01
370
    13
390
0
  6
Continuous
 62
   213
100
AcDbPolyline
 90
        2
 70
     0
 10
5453.027832
 20
909.283936
 10
5453.027832
 20
910.236572
  0
LWPOLYLINE
  5
64
100
AcDbEntity
  8
LAYER01
370
    13
390
0
  6
Continuous
 62
   213
100
AcDbPolyline
 90
        2
 70
     0
 10
5453.027832
 20
913.093994
 10
5453.027832
 20
914.046387
  0
LWPOLYLINE
  5
65
100
AcDbEntity
  8
LAYER01
370
    13
390
0
  6
Continuous
 62
   213
100
AcDbPolyline
 90
        2
 70
     0
 10
5451.122559
 20
884.519043
 10
5451.122559
 20
885.471436
  0
LWPOLYLINE
  5
66
100
AcDbEntity
  8
LAYER01
370
    13
390
0
  6
Continuous
 62
   213
100
AcDbPolyline
 90
        2
 70
     0
 10
5451.122559
 20
888.328857
 10
5451.122559
 20
889.281494
  0
LWPOLYLINE
  5
67
100
AcDbEntity
  8
LAYER01
370
    13
390
0
  6
Continuous
 62
   213
100
AcDbPolyline
 90
        2
 70
     0
 10
5451.122559
 20
892.138916
 10
5451.122559
 20
893.091553
  0
LWPOLYLINE
  5
68
100
AcDbEntity
  8
LAYER01
370
    13
390
0
  6
Continuous
 62
   213
100
AcDbPolyline
 90
        2
 70
     0
 10
5451.122559
 20
895.948975
 10
5451.122559
 20
896.901367
  0
LWPOLYLINE
  5
69
100
AcDbEntity
  8
LAYER01
370
    13
390
0
  6
Continuous
 62
   213
100
AcDbPolyline
 90
        2
 70
     0
 10
5451.122559
 20
899.759033
 10
5451.122559
 20
900.711426
  0
LWPOLYLINE
  5
6A
100
AcDbEntity
  8
LAYER01
370
    13
390
0
  6
Continuous
 62
   213
100
AcDbPolyline
 90
        2
 70
     0
 10
5451.122559
 20
903.568848
 10
5451.122559
 20
904.521484
  0
LWPOLYLINE
  5
6B
100
AcDbEntity
  8
LAYER01
370
    13
390
0
  6
Continuous
 62
   213
100
AcDbPolyline
 90
        2
 70
     0
 10
5451.122559
 20
907.378906
 10
5451.122559
 20
908.331543
  0
LWPOLYLINE
  5
6C
100
AcDbEntity
  8
LAYER01
370
    13
390
0
  6
Continuous
 62
   213
100
AcDbPolyline
 90
        2
 70
     0
 10
5451.122559
 20
911.188965
 10
5451.122559
 20
912.141357
  0
LWPOLYLINE
  5
6D
100
AcDbEntity
  8
LAYER01
370
    13
390
0
  6
Continuous
 62
   213
100
AcDbPolyline
 90
        2
 70
     0
 10
5449.217773
 20
886.424072
 10
5449.217773
 20
887.376465
  0
LWPOLYLINE
  5
6E
100
AcDbEntity
  8
LAYER01
370
    13
390
0
  6
Continuous
 62
   213
100
AcDbPolyline
 90
        2
 70
     0
 10
5449.217773
 20
890.233887
 10
5449.217773
 20
891.186523
  0
LWPOLYLINE
  5
6F
100
AcDbEntity
  8
LAYER01
370
    13
390
0
  6
Continuous
 62
   213
100
AcDbPolyline
 90
        2
 70
     0
 10
5449.217773
 20
894.043945
 10
5449.217773
 20
894.996338
  0
LWPOLYLINE
  5
70
100
AcDbEntity
  8
LAYER01
370
    13
390
0
  6
Continuous
 62
   213
100
AcDbPolyline
 90
        2
 70
     0
 10
5449.217773
 20
897.854004
 10
5449.217773
 20
898.806396
  0
LWPOLYLINE
  5
71
100
AcDbEntity
  8
LAYER01
370
    13
390
0
  6
Continuous
 62
   213
100
AcDbPolyline
 90
        2
 70
     0
 10
5449.217773
 20
901.664063
 10
5449.217773
 20
902.616455
  0
LWPOLYLINE
  5
72
100
AcDbEntity
  8
LAYER01
370
    13
390
0
  6
Continuous
 62
   213
100
AcDbPolyline
 90
        2
 70
     0
 10
5449.217773
 20
905.473877
 10
5449.217773
 20
906.426514
  0
LWPOLYLINE
  5
73
100
AcDbEntity
  8
LAYER01
370
    13
390
0
  6
Continuous
 62
   213
100
AcDbPolyline
 90
        2
 70
     0
 10
5449.217773
 20
909.283936
 10
5449.217773
 20
910.236572
  0
LWPOLYLINE
  5
74
100
AcDbEntity
  8
LAYER01
370
    13
390
0
  6
Continuous
 62
   213
100
AcDbPolyline
 90
        2
 70
     0
 10
5449.217773
 20
913.093994
 10
5449.217773
 20
914.046387
  0
LWPOLYLINE
  5
75
100
AcDbEntity
  8
LAYER01
370
    13
390
0
  6
Continuous
 62
   213
100
AcDbPolyline
 90
        2
 70
     0
 10
5458.742676
 20
884.519043
 10
5458.742676
 20
885.471436
  0
LWPOLYLINE
  5
76
100
AcDbEntity
  8
LAYER01
370
    13
390
0
  6
Continuous
 62
   213
100
AcDbPolyline
 90
        2
 70
     0
 10
5458.742676
 20
911.799072
 10
5458.742676
 20
912.141357
  0
LWPOLYLINE
  5
77
100
AcDbEntity
  8
LAYER01
370
    13
390
0
  6
Continuous
 62
   213
100
AcDbPolyline
 90
        2
 70
     0
 10
5460.647461
 20
913.697998
 10
5460.647461
 20
914.046387
  0
LWPOLYLINE
  5
78
100
AcDbEntity
  8
LAYER01
370
    13
390
0
  6
Continuous
 62
   213
100
AcDbPolyline
 90
        2
 70
     0
 10
5458.588379
 20
900.235107
 10
5458.266602
 20
900.235107
  0
LWPOLYLINE
  5
79
100
AcDbEntity
  8
LAYER01
370
    13
390
0
  6
Continuous
 62
   213
100
AcDbPolyline
 90
        2
 70
     0
 10
5455.40918
 20
900.235107
 10
5454.456543
 20
900.235107
  0
LWPOLYLINE
  5
7A
100
AcDbEntity
  8
LAYER01
370
    13
390
0
  6
Continuous
 62
   213
100
AcDbPolyline
 90
        2
 70
     0
 10
5451.599121
 20
900.235107
 10
5450.646484
 20
900.235107
  0
LWPOLYLINE
  5
7B
100
AcDbEntity
  8
LAYER01
370
    13
390
0
  6
Continuous
 62
   213
100
AcDbPolyline
 90
        2
 70
     0
 10
5457.313965
 20
898.330322
 10
5456.361328
 20
898.330322
  0
LWPOLYLINE
  5
7C
100
AcDbEntity
  8
LAYER01
370
    13
390
0
  6
Continuous
 62
   213
100
AcDbPolyline
 90
        2
 70
     0
 10
5453.503906
 20
898.330322
 10
5452.55127
 20
898.330322
  0
LWPOLYLINE
  5
7D
100
AcDbEntity
  8
LAYER01
370
    13
390
0
  6
Continuous
 62
   213
100
AcDbPolyline
 90
        2
 70
     0
 10
5449.693848
 20
898.330322
 10
5448.741211
 20
898.330322
  0
LWPOLYLINE
  5
7E
100
AcDbEntity
  8
LAYER01
370
    13
390
0
  6
Continuous
 62
   213
100
AcDbPolyline
 90
        2
 70
     0
 10
5458.588379
 20
896.425293
 10
5458.266602
 20
896.425293
  0
LWPOLYLINE
  5
7F
100
AcDbEntity
  8
LAYER01
370
    13
390
0
  6
Continuous
 62
   213
100
AcDbPolyline
 90
        2
 70
     0
 10
5455.40918
 20
896.425293
 10
5454.456543
 20
896.425293
  0
LWPOLYLINE
  5
80
100
AcDbEntity
  8
LAYER01
370
    13
390
0
  6
Continuous
 62
   213
100
AcDbPolyline
 90
        2
 70
     0
 10
5451.599121
 20
896.425293
 10
5450.646484
 20
896.425293
  0
LWPOLYLINE
  5
81
100
AcDbEntity
  8
LAYER01
370
    13
390
0
  6
Continuous
 62
   213
100
AcDbPolyline
 90
        2
 70
     0
 10
5457.313965
 20
894.520264
 10
5456.361328
 20
894.520264
  0
LWPOLYLINE
  5
82
100
AcDbEntity
  8
LAYER01
370
    13
390
0
  6
Continuous
 62
   213
100
AcDbPolyline
 90
        2
 70
     0
 10
5453.503906
 20
894.520264
 10
5452.55127
 20
894.520264
  0
LWPOLYLINE
  5
83
100
AcDbEntity
  8
LAYER01
370
    13
390
0
  6
Continuous
 62
   213
100
AcDbPolyline
 90
        2
 70
     0
 10
5449.693848
 20
894.520264
 10
5448.741211
 20
894.520264
  0
LWPOLYLINE
  5
84
100
AcDbEntity
  8
LAYER01
370
    13
390
0
  6
Continuous
 62
   213
100
AcDbPolyline
 90
        2
 70
     0
 10
5458.588379
 20
892.615234
 10
5458.266602
 20
892.615234
  0
LWPOLYLINE
  5
85
100
AcDbEntity
  8
LAYER01
370
    13
390
0
  6
Continuous
 62
   213
100
AcDbPolyline
 90
        2
 70
     0
 10
5455.40918
 20
892.615234
 10
5454.456543
 20
892.615234
  0
LWPOLYLINE
  5
86
100
AcDbEntity
  8
LAYER01
370
    13
390
0
  6
Continuous
 62
   213
100
AcDbPolyline
 90
        2
 70
     0
 10
5451.599121
 20
892.615234
 10
5450.646484
 20
892.615234
  0
LWPOLYLINE
  5
87
100
AcDbEntity
  8
LAYER01
370
    13
390
0
  6
Continuous
 62
   213
100
AcDbPolyline
 90
        2
 70
     0
 10
5457.313965
 20
890.710205
 10
5456.361328
 20
890.710205
  0
LWPOLYLINE
  5
88
100
AcDbEntity
  8
LAYER01
370
    13
390
0
  6
Continuous
 62
   213
100
AcDbPolyline
 90
        2
 70
     0
 10
5453.503906
 20
890.710205
 10
5452.55127
 20
890.710205
  0
LWPOLYLINE
  5
89
100
AcDbEntity
  8
LAYER01
370
    13
390
0
  6
Continuous
 62
   213
100
AcDbPolyline
 90
        2
 70
     0
 10
5449.693848
 20
890.710205
 10
5448.741211
 20
890.710205
  0
LWPOLYLINE
  5
8A
100
AcDbEntity
  8
LAYER01
370
    13
390
0
  6
Continuous
 62
   213
100
AcDbPolyline
 90
        2
 70
     0
 10
5458.588379
 20
888.805176
 10
5458.266602
 20
888.805176
  0
LWPOLYLINE
  5
8B
100
AcDbEntity
  8
LAYER01
370
    13
390
0
  6
Continuous
 62
   213
100
AcDbPolyline
 90
        2
 70
     0
 10
5455.40918
 20
888.805176
 10
5454.456543
 20
888.805176
  0
LWPOLYLINE
  5
8C
100
AcDbEntity
  8
LAYER01
370
    13
390
0
  6
Continuous
 62
   213
100
AcDbPolyline
 90
        2
 70
     0
 10
5451.599121
 20
888.805176
 10
5450.646484
 20
888.805176
  0
LWPOLYLINE
  5
8D
100
AcDbEntity
  8
LAYER01
370
    13
390
0
  6
Continuous
 62
   213
100
AcDbPolyline
 90
        2
 70
     0
 10
5457.313965
 20
886.900146
 10
5456.361328
 20
886.900146
  0
LWPOLYLINE
  5
8E
100
AcDbEntity
  8
LAYER01
370
    13
390
0
  6
Continuous
 62
   213
100
AcDbPolyline
 90
        2
 70
     0
 10
5453.503906
 20
886.900146
 10
5452.55127
 20
886.900146
  0
LWPOLYLINE
  5
8F
100
AcDbEntity
  8
LAYER01
370
    13
390
0
  6
Continuous
 62
   213
100
AcDbPolyline
 90
        2
 70
     0
 10
5449.693848
 20
886.900146
 10
5448.741211
 20
886.900146
  0
LWPOLYLINE
  5
90
100
AcDbEntity
  8
LAYER01
370
    13
390
0
  6
Continuous
 62
   213
100
AcDbPolyline
 90
        2
 70
     0
 10
5459.21875
 20
884.995117
 10
5458.266602
 20
884.995117
  0
LWPOLYLINE
  5
91
100
AcDbEntity
  8
LAYER01
370
    13
390
0
  6
Continuous
 62
   213
100
AcDbPolyline
 90
        2
 70
     0
 10
5455.40918
 20
884.995117
 10
5454.456543
 20
884.995117
  0
LWPOLYLINE
  5
92
100
AcDbEntity
  8
LAYER01
370
    13
390
0
  6
Continuous
 62
   213
100
AcDbPolyline
 90
        2
 70
     0
 10
5451.599121
 20
884.995117
 10
5450.646484
 20
884.995117
  0
LWPOLYLINE
  5
93
100
AcDbEntity
  8
LAYER01
370
    13
390
0
  6
Continuous
 62
   213
100
AcDbPolyline
 90
        3
 70
     0
 10
5457.313965
 20
902.140137
 10
5456.588379
 20
902.140137
 10
5456.361328
 20
902.140137
  0
LWPOLYLINE
  5
94
100
AcDbEntity
  8
LAYER01
370
    13
390
0
  6
Continuous
 62
   213
100
AcDbPolyline
 90
        2
 70
     0
 10
5453.503906
 20
902.140137
 10
5452.55127
 20
902.140137
  0
LWPOLYLINE
  5
95
100
AcDbEntity
  8
LAYER01
370
    13
390
0
  6
Continuous
 62
   213
100
AcDbPolyline
 90
        2
 70
     0
 10
5449.693848
 20
902.140137
 10
5448.741211
 20
902.140137
  0
LWPOLYLINE
  5
96
100
AcDbEntity
  8
LAYER01
370
    13
390
0
  6
Continuous
 62
   213
100
AcDbPolyline
 90
        2
 70
     0
 10
5458.588379
 20
904.045166
 10
5458.266602
 20
904.045166
  0
LWPOLYLINE
  5
97
100
AcDbEntity
  8
LAYER01
370
    13
390
0
  6
Continuous
 62
   213
100
AcDbPolyline
 90
        2
 70
     0
 10
5455.40918
 20
904.045166
 10
5454.456543
 20
904.045166
  0
LWPOLYLINE
  5
98
100
AcDbEntity
  8
LAYER01
370
    13
390
0
  6
Continuous
 62
   213
100
AcDbPolyline
 90
        2
 70
     0
 10
5451.599121
 20
904.045166
 10
5450.646484
 20
904.045166
  0
LWPOLYLINE
  5
99
100
AcDbEntity
  8
LAYER01
370
    13
390
0
  6
Continuous
 62
   213
100
AcDbPolyline
 90
        3
 70
     0
 10
5457.313965
 20
905.950195
 10
5456.588379
 20
905.950195
 10
5456.361328
 20
905.950195
  0
LWPOLYLINE
  5
9A
100
AcDbEntity
  8
LAYER01
370
    13
390
0
  6
Continuous
 62
   213
100
AcDbPolyline
 90
        2
 70
     0
 10
5453.503906
 20
905.950195
 10
5452.55127
 20
905.950195
  0
LWPOLYLINE
  5
9B
100
AcDbEntity
  8
LAYER01
370
    13
390
0
  6
Continuous
 62
   213
100
AcDbPolyline
 90
        2
 70
     0
 10
5449.693848
 20
905.950195
 10
5448.741211
 20
905.950195
  0
LWPOLYLINE
  5
9C
100
AcDbEntity
  8
LAYER01
370
    13
390
0
  6
Continuous
 62
   213
100
AcDbPolyline
 90
        2
 70
     0
 10
5458.588379
 20
907.855225
 10
5458.266602
 20
907.855225
  0
LWPOLYLINE
  5
9D
100
AcDbEntity
  8
LAYER01
370
    13
390
0
  6
Continuous
 62
   213
100
AcDbPolyline
 90
        2
 70
     0
 10
5455.40918
 20
907.855225
 10
5454.456543
 20
907.855225
  0
LWPOLYLINE
  5
9E
100
AcDbEntity
  8
LAYER01
370
    13
390
0
  6
Continuous
 62
   213
100
AcDbPolyline
 90
        2
 70
     0
 10
5451.599121
 20
907.855225
 10
5450.646484
 20
907.855225
  0
LWPOLYLINE
  5
9F
100
AcDbEntity
  8
LAYER01
370
    13
390
0
  6
Continuous
 62
   213
100
AcDbPolyline
 90
        2
 70
     0
 10
5457.313965
 20
909.760254
 10
5456.361328
 20
909.760254
  0
LWPOLYLINE
  5
A0
100
AcDbEntity
  8
LAYER01
370
    13
390
0
  6
Continuous
 62
   213
100
AcDbPolyline
 90
        2
 70
     0
 10
5453.503906
 20
909.760254
 10
5452.55127
 20
909.760254
  0
LWPOLYLINE
  5
A1
100
AcDbEntity
  8
LAYER01
370
    13
390
0
  6
Continuous
 62
   213
100
AcDbPolyline
 90
        2
 70
     0
 10
5449.693848
 20
909.760254
 10
5448.741211
 20
909.760254
  0
LWPOLYLINE
  5
A2
100
AcDbEntity
  8
LAYER01
370
    13
390
0
  6
Continuous
 62
   213
100
AcDbPolyline
 90
        2
 70
     0
 10
5458.70166
 20
911.665283
 10
5458.266602
 20
911.665283
  0
LWPOLYLINE
  5
A3
100
AcDbEntity
  8
LAYER01
370
    13
390
0
  6
Continuous
 62
   213
100
AcDbPolyline
 90
        2
 70
     0
 10
5455.40918
 20
911.665283
 10
5454.456543
 20
911.665283
  0
LWPOLYLINE
  5
A4
100
AcDbEntity
  8
LAYER01
370
    13
390
0
  6
Continuous
 62
   213
100
AcDbPolyline
 90
        2
 70
     0
 10
5451.599121
 20
911.665283
 10
5450.646484
 20
911.665283
  0
LWPOLYLINE
  5
A5
100
AcDbEntity
  8
LAYER01
370
    13
390
0
  6
Continuous
 62
   213
100
AcDbPolyline
 90
        2
 70
     0
 10
5460.324219
 20
913.570313
 10
5460.171387
 20
913.570313
  0
LWPOLYLINE
  5
A6
100
AcDbEntity
  8
LAYER01
370
    13
390
0
  6
Continuous
 62
   213
100
AcDbPolyline
 90
        2
 70
     0
 10
5457.313965
 20
913.570313
 10
5456.361328
 20
913.570313
  0
LWPOLYLINE
  5
A7
100
AcDbEntity
  8
LAYER01
370
    13
390
0
  6
Continuous
 62
   213
100
AcDbPolyline
 90
        2
 70
     0
 10
5453.503906
 20
913.570313
 10
5452.55127
 20
913.570313
  0
LWPOLYLINE
  5
A8
100
AcDbEntity
  8
LAYER01
370
    13
390
0
  6
Continuous
 62
   213
100
AcDbPolyline
 90
        2
 70
     0
 10
5449.693848
 20
913.570313
 10
5448.741211
 20
913.570313
  0
ENDBLK
  5
A9
100
AcDbEntity
  8
0
390
0
100
AcDbBlockEnd
  0
BLOCK
  5
AE
100
AcDbEntity
  8
0
390
0
100
AcDbBlockBegin
  2
HATCH-CC_U_84
 70
     0
 10
0.0
 20
0.0
 30
0.0
  3
HATCH-CC_U_84
  1

  0
LWPOLYLINE
  5
AF
100
AcDbEntity
  8
LAYER01
370
    13
390
0
  6
Continuous
 62
   213
100
AcDbPolyline
 90
        2
 70
     0
 10
5536.178711
 20
851.849854
 10
5533.833496
 20
854.194824
  0
LWPOLYLINE
  5
B0
100
AcDbEntity
  8
LAYER01
370
    13
390
0
  6
Continuous
 62
   213
100
AcDbPolyline
 90
        2
 70
     0
 10
5496.279785
 20
891.748291
 10
5494.963867
 20
893.064209
  0
LWPOLYLINE
  5
B1
100
AcDbEntity
  8
LAYER01
370
    13
390
0
  6
Continuous
 62
   213
100
AcDbPolyline
 90
        2
 70
     0
 10
5493.678711
 20
894.349854
 10
5491.878418
 20
896.149658
  0
LWPOLYLINE
  5
B2
100
AcDbEntity
  8
LAYER01
370
    13
390
0
  6
Continuous
 62
   213
100
AcDbPolyline
 90
        2
 70
     0
 10
5490.388184
 20
897.639893
 10
5488.383301
 20
899.644775
  0
LWPOLYLINE
  5
B3
100
AcDbEntity
  8
LAYER01
370
    13
390
0
  6
Continuous
 62
   213
100
AcDbPolyline
 90
        2
 70
     0
 10
5531.688477
 20
851.849854
 10
5529.688477
 20
853.849854
  0
LWPOLYLINE
  5
B4
100
AcDbEntity
  8
LAYER01
370
    13
390
0
  6
Continuous
 62
   213
100
AcDbPolyline
 90
        2
 70
     0
 10
5490.188477
 20
893.349854
 10
5488.588379
 20
894.949707
  0
LWPOLYLINE
  5
B5
100
AcDbEntity
  8
LAYER01
370
    13
390
0
  6
Continuous
 62
   213
100
AcDbPolyline
 90
        2
 70
     0
 10
5486.388184
 20
897.149658
 10
5483.788086
 20
899.749756
  0
LWPOLYLINE
  5
B6
100
AcDbEntity
  8
LAYER01
370
    13
390
0
  6
Continuous
 62
   213
100
AcDbPolyline
 90
        2
 70
     0
 10
5527.198242
 20
851.849854
 10
5525.198242
 20
853.849854
  0
LWPOLYLINE
  5
B7
100
AcDbEntity
  8
LAYER01
370
    13
390
0
  6
Continuous
 62
   213
100
AcDbPolyline
 90
        2
 70
     0
 10
5512.588379
 20
866.459717
 10
5510.988281
 20
868.05957
  0
LWPOLYLINE
  5
B8
100
AcDbEntity
  8
LAYER01
370
    13
390
0
  6
Continuous
 62
   213
100
AcDbPolyline
 90
        2
 70
     0
 10
5522.708008
 20
851.849854
 10
5520.708008
 20
853.849854
  0
LWPOLYLINE
  5
B9
100
AcDbEntity
  8
LAYER01
370
    13
390
0
  6
Continuous
 62
   213
100
AcDbPolyline
 90
        2
 70
     0
 10
5510.588379
 20
863.969482
 10
5507.708008
 20
866.849854
  0
LWPOLYLINE
  5
BA
100
AcDbEntity
  8
LAYER01
370
    13
390
0
  6
Continuous
 62
   213
100
AcDbPolyline
 90
        2
 70
     0
 10
5506.239258
 20
868.318604
 10
5505.018066
 20
869.539795
  0
LWPOLYLINE
  5
BB
100
AcDbEntity
  8
LAYER01
370
    13
390
0
  6
Continuous
 62
   213
100
AcDbPolyline
 90
        2
 70
     0
 10
5518.217773
 20
851.849854
 10
5516.113281
 20
853.954346
  0
LWPOLYLINE
  5
BC
100
AcDbEntity
  8
LAYER01
370
    13
390
0
  6
Continuous
 62
   213
100
AcDbPolyline
 90
        2
 70
     0
 10
5510.588379
 20
859.479492
 10
5508.788086
 20
861.279297
  0
LWPOLYLINE
  5
BD
100
AcDbEntity
  8
LAYER01
370
    13
390
0
  6
Continuous
 62
   213
100
AcDbPolyline
 90
        2
 70
     0
 10
5505.018066
 20
865.049805
 10
5503.020996
 20
867.046875
  0
LWPOLYLINE
  5
BE
100
AcDbEntity
  8
LAYER01
370
    13
390
0
  6
Continuous
 62
   213
100
AcDbPolyline
 90
        2
 70
     0
 10
5513.728027
 20
851.849854
 10
5508.788086
 20
856.789307
  0
LWPOLYLINE
  5
BF
100
AcDbEntity
  8
LAYER01
370
    13
390
0
  6
Continuous
 62
   213
100
AcDbPolyline
 90
        2
 70
     0
 10
5500.527832
 20
865.049805
 10
5498.728027
 20
866.849854
  0
LWPOLYLINE
  5
C0
100
AcDbEntity
  8
LAYER01
370
    13
390
0
  6
Continuous
 62
   213
100
AcDbPolyline
 90
        2
 70
     0
 10
5497.585449
 20
867.991943
 10
5495.824707
 20
869.752686
  0
LWPOLYLINE
  5
C1
100
AcDbEntity
  8
LAYER01
370
    13
390
0
  6
Continuous
 62
   213
100
AcDbPolyline
 90
        2
 70
     0
 10
5509.237793
 20
851.849854
 10
5507.237793
 20
853.849854
  0
LWPOLYLINE
  5
C2
100
AcDbEntity
  8
LAYER01
370
    13
390
0
  6
Continuous
 62
   213
100
AcDbPolyline
 90
        2
 70
     0
 10
5496.037598
 20
865.049805
 10
5494.233887
 20
866.853516
  0
LWPOLYLINE
  5
C3
100
AcDbEntity
  8
LAYER01
370
    13
390
0
  6
Continuous
 62
   213
100
AcDbPolyline
 90
        2
 70
     0
 10
5504.747559
 20
851.849854
 10
5502.747559
 20
853.849854
  0
LWPOLYLINE
  5
C4
100
AcDbEntity
  8
LAYER01
370
    13
390
0
  6
Continuous
 62
   213
100
AcDbPolyline
 90
        2
 70
     0
 10
5492.388184
 20
864.208984
 10
5488.588379
 20
868.009033
  0
LWPOLYLINE
  5
C5
100
AcDbEntity
  8
LAYER01
370
    13
390
0
  6
Continuous
 62
   213
100
AcDbPolyline
 90
        2
 70
     0
 10
5500.257324
 20
851.849854
 10
5498.257324
 20
853.849854
  0
LWPOLYLINE
  5
C6
100
AcDbEntity
  8
LAYER01
370
    13
390
0
  6
Continuous
 62
   213
100
AcDbPolyline
 90
        2
 70
     0
 10
5492.388184
 20
859.718994
 10
5490.588379
 20
861.518799
  0
LWPOLYLINE
  5
C7
100
AcDbEntity
  8
LAYER01
370
    13
390
0
  6
Continuous
 62
   213
100
AcDbPolyline
 90
        2
 70
     0
 10
5495.767578
 20
851.849854
 10
5493.767578
 20
853.849854
  0
LWPOLYLINE
  5
C8
100
AcDbEntity
  8
LAYER01
370
    13
390
0
  6
Continuous
 62
   213
100
AcDbPolyline
 90
        2
 70
     0
 10
5492.388184
 20
855.22876
 10
5490.588379
 20
857.028809
  0
LWPOLYLINE
  5
C9
100
AcDbEntity
  8
LAYER01
370
    13
390
0
  6
Continuous
 62
   213
100
AcDbPolyline
 90
        2
 70
     0
 10
5491.277344
 20
851.849854
 10
5488.900879
 20
854.226074
  0
LWPOLYLINE
  5
CA
100
AcDbEntity
  8
LAYER01
370
    13
390
0
  6
Continuous
 62
   213
100
AcDbPolyline
 90
        2
 70
     0
 10
5486.787109
 20
851.849854
 10
5484.708008
 20
853.928955
  0
LWPOLYLINE
  5
CB
100
AcDbEntity
  8
LAYER01
370
    13
390
0
  6
Continuous
 62
   213
100
AcDbPolyline
 90
        2
 70
     0
 10
5482.296875
 20
851.849854
 10
5480.296875
 20
853.849854
  0
LWPOLYLINE
  5
CC
100
AcDbEntity
  8
LAYER01
370
    13
390
0
  6
Continuous
 62
   213
100
AcDbPolyline
 90
        2
 70
     0
 10
5477.806641
 20
851.849854
 10
5475.806641
 20
853.849854
  0
LWPOLYLINE
  5
CD
100
AcDbEntity
  8
LAYER01
370
    13
390
0
  6
Continuous
 62
   213
100
AcDbPolyline
 90
        2
 70
     0
 10
5473.316895
 20
851.849854
 10
5471.316895
 20
853.849854
  0
LWPOLYLINE
  5
CE
100
AcDbEntity
  8
LAYER01
370
    13
390
0
  6
Continuous
 62
   213
100
AcDbPolyline
 90
        2
 70
     0
 10
5468.82666
 20
851.849854
 10
5465.888184
 20
854.788086
  0
LWPOLYLINE
  5
CF
100
AcDbEntity
  8
LAYER01
370
    13
390
0
  6
Continuous
 62
   213
100
AcDbPolyline
 90
        2
 70
     0
 10
5464.336426
 20
851.849854
 10
5462.836426
 20
853.349854
  0
LWPOLYLINE
  5
D0
100
AcDbEntity
  8
LAYER01
370
    13
390
0
  6
Continuous
 62
   213
100
AcDbPolyline
 90
        2
 70
     0
 10
5460.336426
 20
855.849854
 10
5459.336426
 20
856.849854
  0
LWPOLYLINE
  5
D1
100
AcDbEntity
  8
LAYER01
370
    13
390
0
  6
Continuous
 62
   213
100
AcDbPolyline
 90
        2
 70
     0
 10
5459.846191
 20
851.849854
 10
5458.588379
 20
853.107666
  0
LWPOLYLINE
  5
D2
100
AcDbEntity
  8
LAYER01
370
    13
390
0
  6
Continuous
 62
   213
100
AcDbPolyline
 90
        2
 70
     0
 10
5540.668457
 20
851.849854
 10
5539.168457
 20
853.349854
  0
LWPOLYLINE
  5
D3
100
AcDbEntity
  8
LAYER01
370
    13
390
0
  6
Continuous
 62
   213
100
AcDbPolyline
 90
        2
 70
     0
 10
5536.288086
 20
856.22998
 10
5535.668457
 20
856.849854
  0
LWPOLYLINE
  5
D4
100
AcDbEntity
  8
LAYER01
370
    13
390
0
  6
Continuous
 62
   213
100
AcDbPolyline
 90
        2
 70
     0
 10
5498.28125
 20
894.237061
 10
5496.368652
 20
896.149658
  0
LWPOLYLINE
  5
D5
100
AcDbEntity
  8
LAYER01
370
    13
390
0
  6
Continuous
 62
   213
100
AcDbPolyline
 90
        2
 70
     0
 10
5490.388184
 20
902.130127
 10
5488.588379
 20
903.929932
  0
LWPOLYLINE
  5
D6
100
AcDbEntity
  8
LAYER01
370
    13
390
0
  6
Continuous
 62
   213
100
AcDbPolyline
 90
        2
 70
     0
 10
5542.588379
 20
854.420166
 10
5541.288086
 20
855.720215
  0
LWPOLYLINE
  5
D7
100
AcDbEntity
  8
LAYER01
370
    13
390
0
  6
Continuous
 62
   213
100
AcDbPolyline
 90
        2
 70
     0
 10
5541.158691
 20
855.849854
 10
5540.473633
 20
856.534912
  0
LWPOLYLINE
  5
D8
100
AcDbEntity
  8
LAYER01
370
    13
390
0
  6
Continuous
 62
   213
100
AcDbPolyline
 90
        2
 70
     0
 10
5505.806641
 20
891.202148
 10
5503.361328
 20
893.647217
  0
LWPOLYLINE
  5
D9
100
AcDbEntity
  8
LAYER01
370
    13
390
0
  6
Continuous
 62
   213
100
AcDbPolyline
 90
        2
 70
     0
 10
5502.658691
 20
894.349854
 10
5500.858887
 20
896.149658
  0
LWPOLYLINE
  5
DA
100
AcDbEntity
  8
LAYER01
370
    13
390
0
  6
Continuous
 62
   213
100
AcDbPolyline
 90
        2
 70
     0
 10
5490.388184
 20
906.620117
 10
5488.588379
 20
908.420166
  0
LWPOLYLINE
  5
DB
100
AcDbEntity
  8
LAYER01
370
    13
390
0
  6
Continuous
 62
   213
100
AcDbPolyline
 90
        2
 70
     0
 10
5507.148926
 20
894.349854
 10
5505.348633
 20
896.149658
  0
LWPOLYLINE
  5
DC
100
AcDbEntity
  8
LAYER01
370
    13
390
0
  6
Continuous
 62
   213
100
AcDbPolyline
 90
        2
 70
     0
 10
5490.388184
 20
911.110352
 10
5488.588379
 20
912.9104
  0
LWPOLYLINE
  5
DD
100
AcDbEntity
  8
LAYER01
370
    13
390
0
  6
Continuous
 62
   213
100
AcDbPolyline
 90
        2
 70
     0
 10
5486.648926
 20
914.849854
 10
5484.648926
 20
916.849854
  0
LWPOLYLINE
  5
DE
100
AcDbEntity
  8
LAYER01
370
    13
390
0
  6
Continuous
 62
   213
100
AcDbPolyline
 90
        2
 70
     0
 10
5512.569336
 20
893.419434
 10
5509.838867
 20
896.149658
  0
LWPOLYLINE
  5
DF
100
AcDbEntity
  8
LAYER01
370
    13
390
0
  6
Continuous
 62
   213
100
AcDbPolyline
 90
        2
 70
     0
 10
5491.13916
 20
914.849854
 10
5489.13916
 20
916.849854
  0
LWPOLYLINE
  5
E0
100
AcDbEntity
  8
LAYER01
370
    13
390
0
  6
Continuous
 62
   213
100
AcDbPolyline
 90
        2
 70
     0
 10
5513.329102
 20
897.149658
 10
5510.788086
 20
899.690674
  0
LWPOLYLINE
  5
E1
100
AcDbEntity
  8
LAYER01
370
    13
390
0
  6
Continuous
 62
   213
100
AcDbPolyline
 90
        2
 70
     0
 10
5495.628906
 20
914.849854
 10
5493.628906
 20
916.849854
  0
LWPOLYLINE
  5
E2
100
AcDbEntity
  8
LAYER01
370
    13
390
0
  6
Continuous
 62
   213
100
AcDbPolyline
 90
        2
 70
     0
 10
5517.388184
 20
897.580566
 10
5515.503906
 20
899.465332
  0
LWPOLYLINE
  5
E3
100
AcDbEntity
  8
LAYER01
370
    13
390
0
  6
Continuous
 62
   213
100
AcDbPolyline
 90
        2
 70
     0
 10
5512.588379
 20
902.380615
 10
5510.788086
 20
904.180664
  0
LWPOLYLINE
  5
E4
100
AcDbEntity
  8
LAYER01
370
    13
390
0
  6
Continuous
 62
   213
100
AcDbPolyline
 90
        2
 70
     0
 10
5500.119141
 20
914.849854
 10
5498.119141
 20
916.849854
  0
LWPOLYLINE
  5
E5
100
AcDbEntity
  8
LAYER01
370
    13
390
0
  6
Continuous
 62
   213
100
AcDbPolyline
 90
        2
 70
     0
 10
5512.588379
 20
906.87085
 10
5510.788086
 20
908.670898
  0
LWPOLYLINE
  5
E6
100
AcDbEntity
  8
LAYER01
370
    13
390
0
  6
Continuous
 62
   213
100
AcDbPolyline
 90
        2
 70
     0
 10
5504.609375
 20
914.849854
 10
5502.609375
 20
916.849854
  0
LWPOLYLINE
  5
E7
100
AcDbEntity
  8
LAYER01
370
    13
390
0
  6
Continuous
 62
   213
100
AcDbPolyline
 90
        2
 70
     0
 10
5512.588379
 20
911.36084
 10
5510.788086
 20
913.160889
  0
LWPOLYLINE
  5
E8
100
AcDbEntity
  8
LAYER01
370
    13
390
0
  6
Continuous
 62
   213
100
AcDbPolyline
 90
        2
 70
     0
 10
5509.099609
 20
914.849854
 10
5507.099609
 20
916.849854
  0
LWPOLYLINE
  5
E9
100
AcDbEntity
  8
LAYER01
370
    13
390
0
  6
Continuous
 62
   213
100
AcDbPolyline
 90
        2
 70
     0
 10
5516.089844
 20
912.349854
 10
5515.888184
 20
912.551025
  0
LWPOLYLINE
  5
EA
100
AcDbEntity
  8
LAYER01
370
    13
390
0
  6
Continuous
 62
   213
100
AcDbPolyline
 90
        2
 70
     0
 10
5513.589844
 20
914.849854
 10
5511.589844
 20
916.849854
  0
LWPOLYLINE
  5
EB
100
AcDbEntity
  8
LAYER01
370
    13
390
0
  6
Continuous
 62
   213
100
AcDbPolyline
 90
        2
 70
     0
 10
5517.588379
 20
915.341309
 10
5516.07959
 20
916.849854
  0
ENDBLK
  5
EC
100
AcDbEntity
  8
0
390
0
100
AcDbBlockEnd
  0
BLOCK
  5
EF
100
AcDbEntity
  8
0
390
0
100
AcDbBlockBegin
  2
HATCH-CD_U_84
 70
     0
 10
0.0
 20
0.0
 30
0.0
  3
HATCH-CD_U_84
  1

  0
LWPOLYLINE
  5
F0
100
AcDbEntity
  8
LAYER01
370
    13
390
0
  6
Continuous
 62
   213
100
AcDbPolyline
 90
        2
 70
     0
 10
5490.788086
 20
881.730713
 10
5488.588379
 20
883.930664
  0
LWPOLYLINE
  5
F1
100
AcDbEntity
  8
LAYER01
370
    13
390
0
  6
Continuous
 62
   213
100
AcDbPolyline
 90
        2
 70
     0
 10
5490.788086
 20
877.240479
 10
5488.479004
 20
879.549805
  0
LWPOLYLINE
  5
F2
100
AcDbEntity
  8
LAYER01
370
    13
390
0
  6
Continuous
 62
   213
100
AcDbPolyline
 90
        2
 70
     0
 10
5494.611328
 20
868.92749
 10
5488.588379
 20
874.950439
  0
LWPOLYLINE
  5
F3
100
AcDbEntity
  8
LAYER01
370
    13
390
0
  6
Continuous
 62
   213
100
AcDbPolyline
 90
        2
 70
     0
 10
5485.48877
 20
878.049805
 10
5484.138672
 20
879.400146
  0
LWPOLYLINE
  5
F4
100
AcDbEntity
  8
LAYER01
370
    13
390
0
  6
Continuous
 62
   213
100
AcDbPolyline
 90
        2
 70
     0
 10
5492.19873
 20
866.849854
 10
5490.188477
 20
868.860352
  0
LWPOLYLINE
  5
F5
100
AcDbEntity
  8
LAYER01
370
    13
390
0
  6
Continuous
 62
   213
100
AcDbPolyline
 90
        2
 70
     0
 10
5487.499023
 20
871.549805
 10
5485.999023
 20
873.049805
  0
LWPOLYLINE
  5
F6
100
AcDbEntity
  8
LAYER01
370
    13
390
0
  6
Continuous
 62
   213
100
AcDbPolyline
 90
        2
 70
     0
 10
5485.288086
 20
873.760254
 10
5485.059082
 20
873.989502
  0
LWPOLYLINE
  5
F7
100
AcDbEntity
  8
LAYER01
370
    13
390
0
  6
Continuous
 62
   213
100
AcDbPolyline
 90
        2
 70
     0
 10
5490.788086
 20
886.220703
 10
5488.588379
 20
888.420654
  0
LWPOLYLINE
  5
F8
100
AcDbEntity
  8
LAYER01
370
    13
390
0
  6
Continuous
 62
   213
100
AcDbPolyline
 90
        2
 70
     0
 10
5492.550293
 20
888.94873
 10
5490.119141
 20
891.380371
  0
LWPOLYLINE
  5
F9
100
AcDbEntity
  8
LAYER01
370
    13
390
0
  6
Continuous
 62
   213
100
AcDbPolyline
 90
        2
 70
     0
 10
5494.283203
 20
891.705811
 10
5491.639648
 20
894.349854
  0
ENDBLK
  5
FA
100
AcDbEntity
  8
0
390
0
100
AcDbBlockEnd
  0
BLOCK
  5
FD
100
AcDbEntity
  8
0
390
0
100
AcDbBlockBegin
  2
-FENSTER_U_M_84
 70
     0
 10
0.0
 20
0.0
 30
0.0
  3
-FENSTER_U_M_84
  1

  0
LWPOLYLINE
  5
FE
100
AcDbEntity
  8
LAYER01
370
    35
390
0
  6
Continuous
 62
   134
100
AcDbPolyline
 90
        2
 70
     0
 10
60.5
 20
-14.900024
 10
60.0
 20
-15.400024
  0
LWPOLYLINE
  5
FF
100
AcDbEntity
  8
LAYER01
370
    35
390
0
  6
Continuous
 62
   134
100
AcDbPolyline
 90
        2
 70
     0
 10
60.0
 20
-15.400024
 10
60.0
 20
-18.199951
  0
LWPOLYLINE
  5
100
100
AcDbEntity
  8
LAYER01
370
    35
390
0
  6
Continuous
 62
   134
100
AcDbPolyline
 90
        2
 70
     0
 10
60.0
 20
-18.199951
 10
60.5
 20
-18.699951
  0
LWPOLYLINE
  5
101
100
AcDbEntity
  8
LAYER01
370
    35
390
0
  6
Continuous
 62
   134
100
AcDbPolyline
 90
        2
 70
     0
 10
60.5
 20
-18.699951
 10
61.0
 20
-18.699951
  0
LWPOLYLINE
  5
102
100
AcDbEntity
  8
LAYER01
370
    35
390
0
  6
Continuous
 62
   134
100
AcDbPolyline
 90
        2
 70
     0
 10
61.0
 20
-18.699951
 10
61.0
 20
-17.699951
  0
LWPOLYLINE
  5
103
100
AcDbEntity
  8
LAYER01
370
    35
390
0
  6
Continuous
 62
   134
100
AcDbPolyline
 90
        2
 70
     0
 10
61.0
 20
-17.699951
 10
62.5
 20
-17.699951
  0
LWPOLYLINE
  5
104
100
AcDbEntity
  8
LAYER01
370
    35
390
0
  6
Continuous
 62
   134
100
AcDbPolyline
 90
        2
 70
     0
 10
62.5
 20
-17.699951
 10
63.5
 20
-18.699951
  0
LWPOLYLINE
  5
105
100
AcDbEntity
  8
LAYER01
370
    35
390
0
  6
Continuous
 62
   134
100
AcDbPolyline
 90
        2
 70
     0
 10
63.5
 20
-18.699951
 10
63.5
 20
-22.699951
  0
LWPOLYLINE
  5
106
100
AcDbEntity
  8
LAYER01
370
    35
390
0
  6
Continuous
 62
   134
100
AcDbPolyline
 90
        2
 70
     0
 10
63.5
 20
-22.699951
 10
62.5
 20
-23.699951
  0
LWPOLYLINE
  5
107
100
AcDbEntity
  8
LAYER01
370
    35
390
0
  6
Continuous
 62
   134
100
AcDbPolyline
 90
        2
 70
     0
 10
62.5
 20
-23.699951
 10
61.0
 20
-23.699951
  0
LWPOLYLINE
  5
108
100
AcDbEntity
  8
LAYER01
370
    35
390
0
  6
Continuous
 62
   134
100
AcDbPolyline
 90
        2
 70
     0
 10
61.0
 20
-23.699951
 10
61.0
 20
-22.699951
  0
LWPOLYLINE
  5
109
100
AcDbEntity
  8
LAYER01
370
    35
390
0
  6
Continuous
 62
   134
100
AcDbPolyline
 90
        2
 70
     0
 10
61.0
 20
-22.699951
 10
60.5
 20
-22.699951
  0
LWPOLYLINE
  5
10A
100
AcDbEntity
  8
LAYER01
370
    35
390
0
  6
Continuous
 62
   134
100
AcDbPolyline
 90
        2
 70
     0
 10
60.5
 20
-22.699951
 10
60.0
 20
-23.199951
  0
LWPOLYLINE
  5
10B
100
AcDbEntity
  8
LAYER01
370
    35
390
0
  6
Continuous
 62
   134
100
AcDbPolyline
 90
        2
 70
     0
 10
60.0
 20
-23.199951
 10
60.0
 20
-24.5
  0
LWPOLYLINE
  5
10C
100
AcDbEntity
  8
LAYER01
370
    35
390
0
  6
Continuous
 62
   134
100
AcDbPolyline
 90
        2
 70
     0
 10
60.0
 20
-24.5
 10
60.5
 20
-25.0
  0
LWPOLYLINE
  5
10D
100
AcDbEntity
  8
LAYER01
370
    35
390
0
  6
Continuous
 62
   134
100
AcDbPolyline
 90
        2
 70
     0
 10
60.5
 20
-25.0
 10
64.5
 20
-25.0
  0
LWPOLYLINE
  5
10E
100
AcDbEntity
  8
LAYER01
370
    35
390
0
  6
Continuous
 62
   134
100
AcDbPolyline
 90
        2
 70
     0
 10
64.5
 20
-25.0
 10
65.0
 20
-24.5
  0
LWPOLYLINE
  5
10F
100
AcDbEntity
  8
LAYER01
370
    35
390
0
  6
Continuous
 62
   134
100
AcDbPolyline
 90
        2
 70
     0
 10
65.0
 20
-24.5
 10
65.0
 20
58.5
  0
LWPOLYLINE
  5
110
100
AcDbEntity
  8
LAYER01
370
    35
390
0
  6
Continuous
 62
   134
100
AcDbPolyline
 90
        2
 70
     0
 10
65.0
 20
58.5
 10
64.5
 20
59.0
  0
LWPOLYLINE
  5
111
100
AcDbEntity
  8
LAYER01
370
    35
390
0
  6
Continuous
 62
   134
100
AcDbPolyline
 90
        2
 70
     0
 10
64.5
 20
59.0
 10
60.5
 20
59.0
  0
LWPOLYLINE
  5
112
100
AcDbEntity
  8
LAYER01
370
    35
390
0
  6
Continuous
 62
   134
100
AcDbPolyline
 90
        2
 70
     0
 10
60.5
 20
59.0
 10
60.0
 20
58.5
  0
LWPOLYLINE
  5
113
100
AcDbEntity
  8
LAYER01
370
    35
390
0
  6
Continuous
 62
   134
100
AcDbPolyline
 90
        2
 70
     0
 10
60.0
 20
58.5
 10
60.0
 20
57.199951
  0
LWPOLYLINE
  5
114
100
AcDbEntity
  8
LAYER01
370
    35
390
0
  6
Continuous
 62
   134
100
AcDbPolyline
 90
        2
 70
     0
 10
60.0
 20
57.199951
 10
60.5
 20
56.699951
  0
LWPOLYLINE
  5
115
100
AcDbEntity
  8
LAYER01
370
    35
390
0
  6
Continuous
 62
   134
100
AcDbPolyline
 90
        2
 70
     0
 10
60.5
 20
56.699951
 10
61.0
 20
56.699951
  0
LWPOLYLINE
  5
116
100
AcDbEntity
  8
LAYER01
370
    35
390
0
  6
Continuous
 62
   134
100
AcDbPolyline
 90
        2
 70
     0
 10
61.0
 20
56.699951
 10
61.0
 20
57.699951
  0
LWPOLYLINE
  5
117
100
AcDbEntity
  8
LAYER01
370
    35
390
0
  6
Continuous
 62
   134
100
AcDbPolyline
 90
        2
 70
     0
 10
61.0
 20
57.699951
 10
62.5
 20
57.699951
  0
LWPOLYLINE
  5
118
100
AcDbEntity
  8
LAYER01
370
    35
390
0
  6
Continuous
 62
   134
100
AcDbPolyline
 90
        2
 70
     0
 10
62.5
 20
57.699951
 10
63.5
 20
56.699951
  0
LWPOLYLINE
  5
119
100
AcDbEntity
  8
LAYER01
370
    35
390
0
  6
Continuous
 62
   134
100
AcDbPolyline
 90
        2
 70
     0
 10
63.5
 20
56.699951
 10
63.5
 20
52.699951
  0
LWPOLYLINE
  5
11A
100
AcDbEntity
  8
LAYER01
370
    35
390
0
  6
Continuous
 62
   134
100
AcDbPolyline
 90
        2
 70
     0
 10
63.5
 20
52.699951
 10
62.5
 20
51.699951
  0
LWPOLYLINE
  5
11B
100
AcDbEntity
  8
LAYER01
370
    35
390
0
  6
Continuous
 62
   134
100
AcDbPolyline
 90
        2
 70
     0
 10
62.5
 20
51.699951
 10
61.0
 20
51.699951
  0
LWPOLYLINE
  5
11C
100
AcDbEntity
  8
LAYER01
370
    35
390
0
  6
Continuous
 62
   134
100
AcDbPolyline
 90
        2
 70
     0
 10
61.0
 20
51.699951
 10
61.0
 20
52.699951
  0
LWPOLYLINE
  5
11D
100
AcDbEntity
  8
LAYER01
370
    35
390
0
  6
Continuous
 62
   134
100
AcDbPolyline
 90
        2
 70
     0
 10
61.0
 20
52.699951
 10
60.5
 20
52.699951
  0
LWPOLYLINE
  5
11E
100
AcDbEntity
  8
LAYER01
370
    35
390
0
  6
Continuous
 62
   134
100
AcDbPolyline
 90
        2
 70
     0
 10
60.5
 20
52.699951
 10
60.0
 20
52.199951
  0
LWPOLYLINE
  5
11F
100
AcDbEntity
  8
LAYER01
370
    35
390
0
  6
Continuous
 62
   134
100
AcDbPolyline
 90
        2
 70
     0
 10
60.0
 20
52.199951
 10
60.0
 20
49.400024
  0
LWPOLYLINE
  5
120
100
AcDbEntity
  8
LAYER01
370
    35
390
0
  6
Continuous
 62
   134
100
AcDbPolyline
 90
        2
 70
     0
 10
60.0
 20
49.400024
 10
60.699951
 20
48.900024
  0
LWPOLYLINE
  5
121
100
AcDbEntity
  8
LAYER01
370
    35
390
0
  6
Continuous
 62
   134
100
AcDbPolyline
 90
        2
 70
     0
 10
60.699951
 20
48.900024
 10
61.199951
 20
49.400024
  0
LWPOLYLINE
  5
122
100
AcDbEntity
  8
LAYER01
370
    35
390
0
  6
Continuous
 62
   134
100
AcDbPolyline
 90
        2
 70
     0
 10
62.5
 20
25.199951
 10
63.0
 20
24.699951
  0
LWPOLYLINE
  5
123
100
AcDbEntity
  8
LAYER01
370
    35
390
0
  6
Continuous
 62
   134
100
AcDbPolyline
 90
        2
 70
     0
 10
63.0
 20
24.699951
 10
63.0
 20
9.300049
  0
LWPOLYLINE
  5
124
100
AcDbEntity
  8
LAYER01
370
    35
390
0
  6
Continuous
 62
   134
100
AcDbPolyline
 90
        2
 70
     0
 10
63.0
 20
9.300049
 10
62.5
 20
8.800049
  0
LWPOLYLINE
  5
125
100
AcDbEntity
  8
LAYER01
370
    35
390
0
  6
Continuous
 62
   134
100
AcDbPolyline
 90
        2
 70
     0
 10
62.5
 20
8.800049
 10
52.300049
 20
8.800049
  0
LWPOLYLINE
  5
126
100
AcDbEntity
  8
LAYER01
370
    35
390
0
  6
Continuous
 62
   134
100
AcDbPolyline
 90
        2
 70
     0
 10
52.300049
 20
8.800049
 10
51.800049
 20
9.300049
  0
LWPOLYLINE
  5
127
100
AcDbEntity
  8
LAYER01
370
    35
390
0
  6
Continuous
 62
   134
100
AcDbPolyline
 90
        2
 70
     0
 10
51.800049
 20
9.300049
 10
51.800049
 20
24.699951
  0
LWPOLYLINE
  5
128
100
AcDbEntity
  8
LAYER01
370
    35
390
0
  6
Continuous
 62
   134
100
AcDbPolyline
 90
        2
 70
     0
 10
51.800049
 20
24.699951
 10
52.300049
 20
25.199951
  0
LWPOLYLINE
  5
129
100
AcDbEntity
  8
LAYER01
370
    35
390
0
  6
Continuous
 62
   134
100
AcDbPolyline
 90
        2
 70
     0
 10
52.300049
 20
25.199951
 10
62.5
 20
25.199951
  0
LWPOLYLINE
  5
12A
100
AcDbEntity
  8
LAYER01
370
    35
390
0
  6
Continuous
 62
   134
100
AcDbPolyline
 90
        2
 70
     0
 10
22.5
 20
14.859985
 10
22.5
 20
19.140015
  0
LWPOLYLINE
  5
12B
100
AcDbEntity
  8
LAYER01
370
    35
390
0
  6
Continuous
 62
   134
100
AcDbPolyline
 90
        2
 70
     0
 10
22.5
 20
19.140015
 10
22.810059
 20
19.599976
  0
LWPOLYLINE
  5
12C
100
AcDbEntity
  8
LAYER01
370
    35
390
0
  6
Continuous
 62
   134
100
AcDbPolyline
 90
        2
 70
     0
 10
22.810059
 20
19.599976
 10
23.400146
 20
19.859985
  0
LWPOLYLINE
  5
12D
100
AcDbEntity
  8
LAYER01
370
    35
390
0
  6
Continuous
 62
   134
100
AcDbPolyline
 90
        2
 70
     0
 10
23.400146
 20
19.859985
 10
23.959961
 20
20.189941
  0
LWPOLYLINE
  5
12E
100
AcDbEntity
  8
LAYER01
370
    35
390
0
  6
Continuous
 62
   134
100
AcDbPolyline
 90
        2
 70
     0
 10
23.959961
 20
20.189941
 10
24.469971
 20
20.589966
  0
LWPOLYLINE
  5
12F
100
AcDbEntity
  8
LAYER01
370
    35
390
0
  6
Continuous
 62
   134
100
AcDbPolyline
 90
        2
 70
     0
 10
24.469971
 20
20.589966
 10
24.919922
 20
21.060059
  0
LWPOLYLINE
  5
130
100
AcDbEntity
  8
LAYER01
370
    35
390
0
  6
Continuous
 62
   134
100
AcDbPolyline
 90
        2
 70
     0
 10
24.919922
 20
21.060059
 10
25.300049
 20
21.579956
  0
LWPOLYLINE
  5
131
100
AcDbEntity
  8
LAYER01
370
    35
390
0
  6
Continuous
 62
   134
100
AcDbPolyline
 90
        2
 70
     0
 10
25.300049
 20
21.579956
 10
25.620117
 20
22.150024
  0
LWPOLYLINE
  5
132
100
AcDbEntity
  8
LAYER01
370
    35
390
0
  6
Continuous
 62
   134
100
AcDbPolyline
 90
        2
 70
     0
 10
25.620117
 20
22.150024
 10
25.860107
 20
22.73999
  0
LWPOLYLINE
  5
133
100
AcDbEntity
  8
LAYER01
370
    35
390
0
  6
Continuous
 62
   134
100
AcDbPolyline
 90
        2
 70
     0
 10
25.860107
 20
22.73999
 10
26.0
 20
23.280029
  0
LWPOLYLINE
  5
134
100
AcDbEntity
  8
LAYER01
370
    35
390
0
  6
Continuous
 62
   134
100
AcDbPolyline
 90
        2
 70
     0
 10
26.0
 20
23.280029
 10
25.850098
 20
23.540039
  0
LWPOLYLINE
  5
135
100
AcDbEntity
  8
LAYER01
370
    35
390
0
  6
Continuous
 62
   134
100
AcDbPolyline
 90
        2
 70
     0
 10
25.850098
 20
23.540039
 10
25.550049
 20
23.540039
  0
LWPOLYLINE
  5
136
100
AcDbEntity
  8
LAYER01
370
    35
390
0
  6
Continuous
 62
   134
100
AcDbPolyline
 90
        2
 70
     0
 10
25.550049
 20
23.540039
 10
24.030029
 20
22.660034
  0
LWPOLYLINE
  5
137
100
AcDbEntity
  8
LAYER01
370
    35
390
0
  6
Continuous
 62
   134
100
AcDbPolyline
 90
        2
 70
     0
 10
25.699951
 20
27.699951
 10
25.400146
 20
27.400024
  0
LWPOLYLINE
  5
138
100
AcDbEntity
  8
LAYER01
370
    35
390
0
  6
Continuous
 62
   134
100
AcDbPolyline
 90
        2
 70
     0
 10
25.400146
 20
27.400024
 10
23.0
 20
27.400024
  0
LWPOLYLINE
  5
139
100
AcDbEntity
  8
LAYER01
370
    35
390
0
  6
Continuous
 62
   134
100
AcDbPolyline
 90
        2
 70
     0
 10
23.0
 20
27.400024
 10
22.5
 20
26.900024
  0
LWPOLYLINE
  5
13A
100
AcDbEntity
  8
LAYER01
370
    35
390
0
  6
Continuous
 62
   134
100
AcDbPolyline
 90
        2
 70
     0
 10
22.5
 20
26.900024
 10
22.5
 20
23.359985
  0
LWPOLYLINE
  5
13B
100
AcDbEntity
  8
LAYER01
370
    35
390
0
  6
Continuous
 62
   134
100
AcDbPolyline
 90
        2
 70
     0
 10
22.5
 20
23.359985
 10
23.209961
 20
22.540039
  0
LWPOLYLINE
  5
13C
100
AcDbEntity
  8
LAYER01
370
    35
390
0
  6
Continuous
 62
   134
100
AcDbPolyline
 90
        2
 70
     0
 10
23.209961
 20
22.540039
 10
24.030029
 20
22.660034
  0
LWPOLYLINE
  5
13D
100
AcDbEntity
  8
LAYER01
370
    35
390
0
  6
Continuous
 62
   134
100
AcDbPolyline
 90
        2
 70
     0
 10
24.030029
 20
22.660034
 10
22.949951
 20
22.660034
  0
LWPOLYLINE
  5
13E
100
AcDbEntity
  8
LAYER01
370
    35
390
0
  6
Continuous
 62
   134
100
AcDbPolyline
 90
        2
 70
     0
 10
22.949951
 20
22.660034
 10
22.5
 20
23.359985
  0
LWPOLYLINE
  5
13F
100
AcDbEntity
  8
LAYER01
370
    35
390
0
  6
Continuous
 62
   134
100
AcDbPolyline
 90
        2
 70
     0
 10
22.5
 20
23.359985
 10
22.5
 20
26.900024
  0
LWPOLYLINE
  5
140
100
AcDbEntity
  8
LAYER01
370
    35
390
0
  6
Continuous
 62
   134
100
AcDbPolyline
 90
        2
 70
     0
 10
22.5
 20
26.900024
 10
23.0
 20
27.400024
  0
LWPOLYLINE
  5
141
100
AcDbEntity
  8
LAYER01
370
    35
390
0
  6
Continuous
 62
   134
100
AcDbPolyline
 90
        2
 70
     0
 10
23.0
 20
27.400024
 10
25.400146
 20
27.400024
  0
LWPOLYLINE
  5
142
100
AcDbEntity
  8
LAYER01
370
    35
390
0
  6
Continuous
 62
   134
100
AcDbPolyline
 90
        2
 70
     0
 10
25.400146
 20
27.400024
 10
25.699951
 20
27.699951
  0
LWPOLYLINE
  5
143
100
AcDbEntity
  8
LAYER01
370
    35
390
0
  6
Continuous
 62
   134
100
AcDbPolyline
 90
        2
 70
     0
 10
25.699951
 20
27.699951
 10
25.699951
 20
28.699951
  0
LWPOLYLINE
  5
144
100
AcDbEntity
  8
LAYER01
370
    35
390
0
  6
Continuous
 62
   134
100
AcDbPolyline
 90
        2
 70
     0
 10
25.699951
 20
28.699951
 10
25.400146
 20
29.0
  0
LWPOLYLINE
  5
145
100
AcDbEntity
  8
LAYER01
370
    35
390
0
  6
Continuous
 62
   134
100
AcDbPolyline
 90
        2
 70
     0
 10
25.400146
 20
29.0
 10
23.5
 20
29.0
  0
LWPOLYLINE
  5
146
100
AcDbEntity
  8
LAYER01
370
    35
390
0
  6
Continuous
 62
   134
100
AcDbPolyline
 90
        2
 70
     0
 10
23.5
 20
29.0
 10
22.77002
 20
28.800049
  0
LWPOLYLINE
  5
147
100
AcDbEntity
  8
LAYER01
370
    35
390
0
  6
Continuous
 62
   134
100
AcDbPolyline
 90
        2
 70
     0
 10
22.77002
 20
28.800049
 10
22.5
 20
29.0
  0
LWPOLYLINE
  5
148
100
AcDbEntity
  8
LAYER01
370
    35
390
0
  6
Continuous
 62
   134
100
AcDbPolyline
 90
        2
 70
     0
 10
22.5
 20
29.0
 10
20.199951
 20
29.0
  0
LWPOLYLINE
  5
149
100
AcDbEntity
  8
LAYER01
370
    35
390
0
  6
Continuous
 62
   134
100
AcDbPolyline
 90
        2
 70
     0
 10
20.199951
 20
29.0
 10
19.699951
 20
29.5
  0
LWPOLYLINE
  5
14A
100
AcDbEntity
  8
LAYER01
370
    35
390
0
  6
Continuous
 62
   134
100
AcDbPolyline
 90
        2
 70
     0
 10
19.699951
 20
29.5
 10
19.699951
 20
31.800049
  0
LWPOLYLINE
  5
14B
100
AcDbEntity
  8
LAYER01
370
    35
390
0
  6
Continuous
 62
   134
100
AcDbPolyline
 90
        2
 70
     0
 10
19.699951
 20
31.800049
 10
20.199951
 20
32.300049
  0
LWPOLYLINE
  5
14C
100
AcDbEntity
  8
LAYER01
370
    35
390
0
  6
Continuous
 62
   134
100
AcDbPolyline
 90
        2
 70
     0
 10
20.199951
 20
32.300049
 10
21.199951
 20
32.300049
  0
LWPOLYLINE
  5
14D
100
AcDbEntity
  8
LAYER01
370
    35
390
0
  6
Continuous
 62
   134
100
AcDbPolyline
 90
        2
 70
     0
 10
21.199951
 20
32.300049
 10
21.699951
 20
32.800049
  0
LWPOLYLINE
  5
14E
100
AcDbEntity
  8
LAYER01
370
    35
390
0
  6
Continuous
 62
   134
100
AcDbPolyline
 90
        2
 70
     0
 10
21.699951
 20
32.800049
 10
21.699951
 20
33.300049
  0
LWPOLYLINE
  5
14F
100
AcDbEntity
  8
LAYER01
370
    35
390
0
  6
Continuous
 62
   134
100
AcDbPolyline
 90
        2
 70
     0
 10
21.699951
 20
33.300049
 10
21.199951
 20
33.800049
  0
LWPOLYLINE
  5
150
100
AcDbEntity
  8
LAYER01
370
    35
390
0
  6
Continuous
 62
   134
100
AcDbPolyline
 90
        2
 70
     0
 10
21.199951
 20
33.800049
 10
15.5
 20
33.800049
  0
LWPOLYLINE
  5
151
100
AcDbEntity
  8
LAYER01
370
    35
390
0
  6
Continuous
 62
   134
100
AcDbPolyline
 90
        2
 70
     0
 10
15.5
 20
33.800049
 10
14.5
 20
32.800049
  0
LWPOLYLINE
  5
152
100
AcDbEntity
  8
LAYER01
370
    35
390
0
  6
Continuous
 62
   134
100
AcDbPolyline
 90
        2
 70
     0
 10
14.5
 20
32.800049
 10
14.5
 20
32.300049
  0
LWPOLYLINE
  5
153
100
AcDbEntity
  8
LAYER01
370
    35
390
0
  6
Continuous
 62
   134
100
AcDbPolyline
 90
        2
 70
     0
 10
14.5
 20
32.300049
 10
17.0
 20
32.300049
  0
LWPOLYLINE
  5
154
100
AcDbEntity
  8
LAYER01
370
    35
390
0
  6
Continuous
 62
   134
100
AcDbPolyline
 90
        2
 70
     0
 10
17.0
 20
32.300049
 10
18.0
 20
31.300049
  0
LWPOLYLINE
  5
155
100
AcDbEntity
  8
LAYER01
370
    35
390
0
  6
Continuous
 62
   134
100
AcDbPolyline
 90
        2
 70
     0
 10
18.0
 20
31.300049
 10
18.0
 20
30.0
  0
LWPOLYLINE
  5
156
100
AcDbEntity
  8
LAYER01
370
    35
390
0
  6
Continuous
 62
   134
100
AcDbPolyline
 90
        2
 70
     0
 10
18.0
 20
30.0
 10
17.0
 20
29.0
  0
LWPOLYLINE
  5
157
100
AcDbEntity
  8
LAYER01
370
    35
390
0
  6
Continuous
 62
   134
100
AcDbPolyline
 90
        2
 70
     0
 10
17.0
 20
29.0
 10
10.0
 20
29.0
  0
LWPOLYLINE
  5
158
100
AcDbEntity
  8
LAYER01
370
    35
390
0
  6
Continuous
 62
   134
100
AcDbPolyline
 90
        2
 70
     0
 10
10.0
 20
29.0
 10
9.0
 20
29.0
  0
LWPOLYLINE
  5
159
100
AcDbEntity
  8
LAYER01
370
    35
390
0
  6
Continuous
 62
   134
100
AcDbPolyline
 90
        2
 70
     0
 10
9.0
 20
29.0
 10
3.0
 20
29.0
  0
LWPOLYLINE
  5
15A
100
AcDbEntity
  8
LAYER01
370
    35
390
0
  6
Continuous
 62
   134
100
AcDbPolyline
 90
        2
 70
     0
 10
3.0
 20
29.0
 10
2.0
 20
30.0
  0
LWPOLYLINE
  5
15B
100
AcDbEntity
  8
LAYER01
370
    35
390
0
  6
Continuous
 62
   134
100
AcDbPolyline
 90
        2
 70
     0
 10
2.0
 20
30.0
 10
2.0
 20
31.300049
  0
LWPOLYLINE
  5
15C
100
AcDbEntity
  8
LAYER01
370
    35
390
0
  6
Continuous
 62
   134
100
AcDbPolyline
 90
        2
 70
     0
 10
2.0
 20
31.300049
 10
3.0
 20
32.300049
  0
LWPOLYLINE
  5
15D
100
AcDbEntity
  8
LAYER01
370
    35
390
0
  6
Continuous
 62
   134
100
AcDbPolyline
 90
        2
 70
     0
 10
3.0
 20
32.300049
 10
4.5
 20
32.300049
  0
LWPOLYLINE
  5
15E
100
AcDbEntity
  8
LAYER01
370
    35
390
0
  6
Continuous
 62
   134
100
AcDbPolyline
 90
        2
 70
     0
 10
4.5
 20
32.300049
 10
4.5
 20
32.900024
  0
LWPOLYLINE
  5
15F
100
AcDbEntity
  8
LAYER01
370
    35
390
0
  6
Continuous
 62
   134
100
AcDbPolyline
 90
        2
 70
     0
 10
4.5
 20
32.900024
 10
3.400146
 20
34.0
  0
LWPOLYLINE
  5
160
100
AcDbEntity
  8
LAYER01
370
    35
390
0
  6
Continuous
 62
   134
100
AcDbPolyline
 90
        2
 70
     0
 10
3.400146
 20
34.0
 10
0.0
 20
34.0
  0
LWPOLYLINE
  5
161
100
AcDbEntity
  8
LAYER01
370
    35
390
0
  6
Continuous
 62
   134
100
AcDbPolyline
 90
        2
 70
     0
 10
0.0
 20
34.0
 10
0.0
 20
0.0
  0
LWPOLYLINE
  5
162
100
AcDbEntity
  8
LAYER01
370
    35
390
0
  6
Continuous
 62
   134
100
AcDbPolyline
 90
        2
 70
     0
 10
0.0
 20
0.0
 10
3.400146
 20
0.0
  0
LWPOLYLINE
  5
163
100
AcDbEntity
  8
LAYER01
370
    35
390
0
  6
Continuous
 62
   134
100
AcDbPolyline
 90
        2
 70
     0
 10
3.400146
 20
0.0
 10
4.5
 20
1.099976
  0
LWPOLYLINE
  5
164
100
AcDbEntity
  8
LAYER01
370
    35
390
0
  6
Continuous
 62
   134
100
AcDbPolyline
 90
        2
 70
     0
 10
4.5
 20
1.099976
 10
4.5
 20
1.699951
  0
LWPOLYLINE
  5
165
100
AcDbEntity
  8
LAYER01
370
    35
390
0
  6
Continuous
 62
   134
100
AcDbPolyline
 90
        2
 70
     0
 10
4.5
 20
1.699951
 10
3.0
 20
1.699951
  0
LWPOLYLINE
  5
166
100
AcDbEntity
  8
LAYER01
370
    35
390
0
  6
Continuous
 62
   134
100
AcDbPolyline
 90
        2
 70
     0
 10
3.0
 20
1.699951
 10
2.0
 20
2.699951
  0
LWPOLYLINE
  5
167
100
AcDbEntity
  8
LAYER01
370
    35
390
0
  6
Continuous
 62
   134
100
AcDbPolyline
 90
        2
 70
     0
 10
2.0
 20
2.699951
 10
2.0
 20
4.0
  0
LWPOLYLINE
  5
168
100
AcDbEntity
  8
LAYER01
370
    35
390
0
  6
Continuous
 62
   134
100
AcDbPolyline
 90
        2
 70
     0
 10
2.0
 20
4.0
 10
3.0
 20
5.0
  0
LWPOLYLINE
  5
169
100
AcDbEntity
  8
LAYER01
370
    35
390
0
  6
Continuous
 62
   134
100
AcDbPolyline
 90
        2
 70
     0
 10
3.0
 20
5.0
 10
9.0
 20
5.0
  0
LWPOLYLINE
  5
16A
100
AcDbEntity
  8
LAYER01
370
    35
390
0
  6
Continuous
 62
   134
100
AcDbPolyline
 90
        2
 70
     0
 10
9.0
 20
5.0
 10
10.0
 20
5.0
  0
LWPOLYLINE
  5
16B
100
AcDbEntity
  8
LAYER01
370
    35
390
0
  6
Continuous
 62
   134
100
AcDbPolyline
 90
        2
 70
     0
 10
10.0
 20
5.0
 10
17.0
 20
5.0
  0
LWPOLYLINE
  5
16C
100
AcDbEntity
  8
LAYER01
370
    35
390
0
  6
Continuous
 62
   134
100
AcDbPolyline
 90
        2
 70
     0
 10
17.0
 20
5.0
 10
18.0
 20
4.0
  0
LWPOLYLINE
  5
16D
100
AcDbEntity
  8
LAYER01
370
    35
390
0
  6
Continuous
 62
   134
100
AcDbPolyline
 90
        2
 70
     0
 10
18.0
 20
4.0
 10
18.0
 20
2.699951
  0
LWPOLYLINE
  5
16E
100
AcDbEntity
  8
LAYER01
370
    35
390
0
  6
Continuous
 62
   134
100
AcDbPolyline
 90
        2
 70
     0
 10
18.0
 20
2.699951
 10
17.0
 20
1.699951
  0
LWPOLYLINE
  5
16F
100
AcDbEntity
  8
LAYER01
370
    35
390
0
  6
Continuous
 62
   134
100
AcDbPolyline
 90
        2
 70
     0
 10
17.0
 20
1.699951
 10
14.5
 20
1.699951
  0
LWPOLYLINE
  5
170
100
AcDbEntity
  8
LAYER01
370
    35
390
0
  6
Continuous
 62
   134
100
AcDbPolyline
 90
        2
 70
     0
 10
14.5
 20
1.699951
 10
14.5
 20
1.199951
  0
LWPOLYLINE
  5
171
100
AcDbEntity
  8
LAYER01
370
    35
390
0
  6
Continuous
 62
   134
100
AcDbPolyline
 90
        2
 70
     0
 10
14.5
 20
1.199951
 10
15.5
 20
0.199951
  0
LWPOLYLINE
  5
172
100
AcDbEntity
  8
LAYER01
370
    35
390
0
  6
Continuous
 62
   134
100
AcDbPolyline
 90
        2
 70
     0
 10
15.5
 20
0.199951
 10
21.199951
 20
0.199951
  0
LWPOLYLINE
  5
173
100
AcDbEntity
  8
LAYER01
370
    35
390
0
  6
Continuous
 62
   134
100
AcDbPolyline
 90
        2
 70
     0
 10
21.199951
 20
0.199951
 10
21.699951
 20
0.699951
  0
LWPOLYLINE
  5
174
100
AcDbEntity
  8
LAYER01
370
    35
390
0
  6
Continuous
 62
   134
100
AcDbPolyline
 90
        2
 70
     0
 10
21.699951
 20
0.699951
 10
21.699951
 20
1.199951
  0
LWPOLYLINE
  5
175
100
AcDbEntity
  8
LAYER01
370
    35
390
0
  6
Continuous
 62
   134
100
AcDbPolyline
 90
        2
 70
     0
 10
21.699951
 20
1.199951
 10
21.199951
 20
1.699951
  0
LWPOLYLINE
  5
176
100
AcDbEntity
  8
LAYER01
370
    35
390
0
  6
Continuous
 62
   134
100
AcDbPolyline
 90
        2
 70
     0
 10
21.199951
 20
1.699951
 10
20.199951
 20
1.699951
  0
LWPOLYLINE
  5
177
100
AcDbEntity
  8
LAYER01
370
    35
390
0
  6
Continuous
 62
   134
100
AcDbPolyline
 90
        2
 70
     0
 10
20.199951
 20
1.699951
 10
19.699951
 20
2.199951
  0
LWPOLYLINE
  5
178
100
AcDbEntity
  8
LAYER01
370
    35
390
0
  6
Continuous
 62
   134
100
AcDbPolyline
 90
        2
 70
     0
 10
19.699951
 20
2.199951
 10
19.699951
 20
4.5
  0
LWPOLYLINE
  5
179
100
AcDbEntity
  8
LAYER01
370
    35
390
0
  6
Continuous
 62
   134
100
AcDbPolyline
 90
        2
 70
     0
 10
19.699951
 20
4.5
 10
20.199951
 20
5.0
  0
LWPOLYLINE
  5
17A
100
AcDbEntity
  8
LAYER01
370
    35
390
0
  6
Continuous
 62
   134
100
AcDbPolyline
 90
        2
 70
     0
 10
20.199951
 20
5.0
 10
22.5
 20
5.0
  0
LWPOLYLINE
  5
17B
100
AcDbEntity
  8
LAYER01
370
    35
390
0
  6
Continuous
 62
   134
100
AcDbPolyline
 90
        2
 70
     0
 10
22.5
 20
5.0
 10
23.22998
 20
5.199951
  0
LWPOLYLINE
  5
17C
100
AcDbEntity
  8
LAYER01
370
    35
390
0
  6
Continuous
 62
   134
100
AcDbPolyline
 90
        2
 70
     0
 10
23.22998
 20
5.199951
 10
23.5
 20
5.0
  0
LWPOLYLINE
  5
17D
100
AcDbEntity
  8
LAYER01
370
    35
390
0
  6
Continuous
 62
   134
100
AcDbPolyline
 90
        2
 70
     0
 10
23.5
 20
5.0
 10
25.400146
 20
5.0
  0
LWPOLYLINE
  5
17E
100
AcDbEntity
  8
LAYER01
370
    35
390
0
  6
Continuous
 62
   134
100
AcDbPolyline
 90
        2
 70
     0
 10
25.400146
 20
5.0
 10
25.699951
 20
5.300049
  0
LWPOLYLINE
  5
17F
100
AcDbEntity
  8
LAYER01
370
    35
390
0
  6
Continuous
 62
   134
100
AcDbPolyline
 90
        2
 70
     0
 10
25.699951
 20
5.300049
 10
25.699951
 20
6.300049
  0
LWPOLYLINE
  5
180
100
AcDbEntity
  8
LAYER01
370
    35
390
0
  6
Continuous
 62
   134
100
AcDbPolyline
 90
        2
 70
     0
 10
25.699951
 20
6.300049
 10
25.400146
 20
6.599976
  0
LWPOLYLINE
  5
181
100
AcDbEntity
  8
LAYER01
370
    35
390
0
  6
Continuous
 62
   134
100
AcDbPolyline
 90
        2
 70
     0
 10
25.400146
 20
6.599976
 10
23.0
 20
6.599976
  0
LWPOLYLINE
  5
182
100
AcDbEntity
  8
LAYER01
370
    35
390
0
  6
Continuous
 62
   134
100
AcDbPolyline
 90
        2
 70
     0
 10
23.0
 20
6.599976
 10
22.5
 20
7.099976
  0
LWPOLYLINE
  5
183
100
AcDbEntity
  8
LAYER01
370
    35
390
0
  6
Continuous
 62
   134
100
AcDbPolyline
 90
        2
 70
     0
 10
22.5
 20
7.099976
 10
22.5
 20
10.640015
  0
LWPOLYLINE
  5
184
100
AcDbEntity
  8
LAYER01
370
    35
390
0
  6
Continuous
 62
   134
100
AcDbPolyline
 90
        2
 70
     0
 10
22.5
 20
10.640015
 10
23.209961
 20
11.459961
  0
LWPOLYLINE
  5
185
100
AcDbEntity
  8
LAYER01
370
    35
390
0
  6
Continuous
 62
   134
100
AcDbPolyline
 90
        2
 70
     0
 10
23.209961
 20
11.459961
 10
24.030029
 20
11.339966
  0
LWPOLYLINE
  5
186
100
AcDbEntity
  8
LAYER01
370
    35
390
0
  6
Continuous
 62
   134
100
AcDbPolyline
 90
        2
 70
     0
 10
24.030029
 20
11.339966
 10
25.550049
 20
10.459961
  0
LWPOLYLINE
  5
187
100
AcDbEntity
  8
LAYER01
370
    35
390
0
  6
Continuous
 62
   134
100
AcDbPolyline
 90
        2
 70
     0
 10
25.550049
 20
10.459961
 10
25.850098
 20
10.459961
  0
LWPOLYLINE
  5
188
100
AcDbEntity
  8
LAYER01
370
    35
390
0
  6
Continuous
 62
   134
100
AcDbPolyline
 90
        2
 70
     0
 10
25.850098
 20
10.459961
 10
26.0
 20
10.719971
  0
LWPOLYLINE
  5
189
100
AcDbEntity
  8
LAYER01
370
    35
390
0
  6
Continuous
 62
   134
100
AcDbPolyline
 90
        2
 70
     0
 10
26.0
 20
10.719971
 10
25.860107
 20
11.26001
  0
LWPOLYLINE
  5
18A
100
AcDbEntity
  8
LAYER01
370
    35
390
0
  6
Continuous
 62
   134
100
AcDbPolyline
 90
        2
 70
     0
 10
25.860107
 20
11.26001
 10
25.620117
 20
11.849976
  0
LWPOLYLINE
  5
18B
100
AcDbEntity
  8
LAYER01
370
    35
390
0
  6
Continuous
 62
   134
100
AcDbPolyline
 90
        2
 70
     0
 10
25.620117
 20
11.849976
 10
25.300049
 20
12.420044
  0
LWPOLYLINE
  5
18C
100
AcDbEntity
  8
LAYER01
370
    35
390
0
  6
Continuous
 62
   134
100
AcDbPolyline
 90
        2
 70
     0
 10
25.300049
 20
12.420044
 10
24.919922
 20
12.939941
  0
LWPOLYLINE
  5
18D
100
AcDbEntity
  8
LAYER01
370
    35
390
0
  6
Continuous
 62
   134
100
AcDbPolyline
 90
        2
 70
     0
 10
24.919922
 20
12.939941
 10
24.469971
 20
13.410034
  0
LWPOLYLINE
  5
18E
100
AcDbEntity
  8
LAYER01
370
    35
390
0
  6
Continuous
 62
   134
100
AcDbPolyline
 90
        2
 70
     0
 10
24.469971
 20
13.410034
 10
23.959961
 20
13.810059
  0
LWPOLYLINE
  5
18F
100
AcDbEntity
  8
LAYER01
370
    35
390
0
  6
Continuous
 62
   134
100
AcDbPolyline
 90
        2
 70
     0
 10
23.959961
 20
13.810059
 10
23.400146
 20
14.140015
  0
LWPOLYLINE
  5
190
100
AcDbEntity
  8
LAYER01
370
    35
390
0
  6
Continuous
 62
   134
100
AcDbPolyline
 90
        2
 70
     0
 10
23.400146
 20
14.140015
 10
22.810059
 20
14.400024
  0
LWPOLYLINE
  5
191
100
AcDbEntity
  8
LAYER01
370
    35
390
0
  6
Continuous
 62
   134
100
AcDbPolyline
 90
        2
 70
     0
 10
22.810059
 20
14.400024
 10
22.5
 20
14.859985
  0
LWPOLYLINE
  5
192
100
AcDbEntity
  8
LAYER01
370
    35
390
0
  6
Continuous
 62
   134
100
AcDbPolyline
 90
        2
 70
     0
 10
2.5
 20
6.800049
 10
2.0
 20
7.300049
  0
LWPOLYLINE
  5
193
100
AcDbEntity
  8
LAYER01
370
    35
390
0
  6
Continuous
 62
   134
100
AcDbPolyline
 90
        2
 70
     0
 10
2.0
 20
7.300049
 10
2.0
 20
17.0
  0
LWPOLYLINE
  5
194
100
AcDbEntity
  8
LAYER01
370
    35
390
0
  6
Continuous
 62
   134
100
AcDbPolyline
 90
        2
 70
     0
 10
2.0
 20
17.0
 10
2.0
 20
26.699951
  0
LWPOLYLINE
  5
195
100
AcDbEntity
  8
LAYER01
370
    35
390
0
  6
Continuous
 62
   134
100
AcDbPolyline
 90
        2
 70
     0
 10
2.0
 20
26.699951
 10
2.5
 20
27.199951
  0
LWPOLYLINE
  5
196
100
AcDbEntity
  8
LAYER01
370
    35
390
0
  6
Continuous
 62
   134
100
AcDbPolyline
 90
        2
 70
     0
 10
2.5
 20
27.199951
 10
20.199951
 20
27.199951
  0
LWPOLYLINE
  5
197
100
AcDbEntity
  8
LAYER01
370
    35
390
0
  6
Continuous
 62
   134
100
AcDbPolyline
 90
        2
 70
     0
 10
20.199951
 20
27.199951
 10
20.699951
 20
26.699951
  0
LWPOLYLINE
  5
198
100
AcDbEntity
  8
LAYER01
370
    35
390
0
  6
Continuous
 62
   134
100
AcDbPolyline
 90
        2
 70
     0
 10
20.699951
 20
26.699951
 10
20.699951
 20
7.300049
  0
LWPOLYLINE
  5
199
100
AcDbEntity
  8
LAYER01
370
    35
390
0
  6
Continuous
 62
   134
100
AcDbPolyline
 90
        2
 70
     0
 10
20.699951
 20
7.300049
 10
20.199951
 20
6.800049
  0
LWPOLYLINE
  5
19A
100
AcDbEntity
  8
LAYER01
370
    35
390
0
  6
Continuous
 62
   134
100
AcDbPolyline
 90
        2
 70
     0
 10
20.199951
 20
6.800049
 10
2.5
 20
6.800049
  0
LWPOLYLINE
  5
19B
100
AcDbEntity
  8
LAYER01
370
    35
390
0
  6
Continuous
 62
   134
100
AcDbPolyline
 90
        2
 70
     0
 10
61.199951
 20
49.400024
 10
61.199951
 20
49.900024
  0
LWPOLYLINE
  5
19C
100
AcDbEntity
  8
LAYER01
370
    35
390
0
  6
Continuous
 62
   134
100
AcDbPolyline
 90
        2
 70
     0
 10
61.199951
 20
49.900024
 10
61.699951
 20
50.400024
  0
LWPOLYLINE
  5
19D
100
AcDbEntity
  8
LAYER01
370
    35
390
0
  6
Continuous
 62
   134
100
AcDbPolyline
 90
        2
 70
     0
 10
61.699951
 20
50.400024
 10
62.5
 20
50.400024
  0
LWPOLYLINE
  5
19E
100
AcDbEntity
  8
LAYER01
370
    35
390
0
  6
Continuous
 62
   134
100
AcDbPolyline
 90
        2
 70
     0
 10
62.5
 20
50.400024
 10
63.0
 20
49.900024
  0
LWPOLYLINE
  5
19F
100
AcDbEntity
  8
LAYER01
370
    35
390
0
  6
Continuous
 62
   134
100
AcDbPolyline
 90
        2
 70
     0
 10
63.0
 20
49.900024
 10
63.0
 20
34.0
  0
LWPOLYLINE
  5
1A0
100
AcDbEntity
  8
LAYER01
370
    35
390
0
  6
Continuous
 62
   134
100
AcDbPolyline
 90
        2
 70
     0
 10
63.0
 20
34.0
 10
62.570068
 20
27.930054
  0
LWPOLYLINE
  5
1A1
100
AcDbEntity
  8
LAYER01
370
    35
390
0
  6
Continuous
 62
   134
100
AcDbPolyline
 90
        2
 70
     0
 10
62.570068
 20
27.930054
 10
61.570068
 20
27.0
  0
LWPOLYLINE
  5
1A2
100
AcDbEntity
  8
LAYER01
370
    35
390
0
  6
Continuous
 62
   134
100
AcDbPolyline
 90
        2
 70
     0
 10
61.570068
 20
27.0
 10
52.5
 20
27.0
  0
LWPOLYLINE
  5
1A3
100
AcDbEntity
  8
LAYER01
370
    35
390
0
  6
Continuous
 62
   134
100
AcDbPolyline
 90
        2
 70
     0
 10
52.5
 20
27.0
 10
52.0
 20
27.5
  0
LWPOLYLINE
  5
1A4
100
AcDbEntity
  8
LAYER01
370
    35
390
0
  6
Continuous
 62
   134
100
AcDbPolyline
 90
        2
 70
     0
 10
52.0
 20
27.5
 10
52.0
 20
28.5
  0
LWPOLYLINE
  5
1A5
100
AcDbEntity
  8
LAYER01
370
    35
390
0
  6
Continuous
 62
   134
100
AcDbPolyline
 90
        2
 70
     0
 10
52.0
 20
28.5
 10
51.5
 20
29.0
  0
LWPOLYLINE
  5
1A6
100
AcDbEntity
  8
LAYER01
370
    35
390
0
  6
Continuous
 62
   134
100
AcDbPolyline
 90
        2
 70
     0
 10
51.5
 20
29.0
 10
50.0
 20
29.0
  0
LWPOLYLINE
  5
1A7
100
AcDbEntity
  8
LAYER01
370
    35
390
0
  6
Continuous
 62
   134
100
AcDbPolyline
 90
        2
 70
     0
 10
50.0
 20
29.0
 10
49.27002
 20
28.800049
  0
LWPOLYLINE
  5
1A8
100
AcDbEntity
  8
LAYER01
370
    35
390
0
  6
Continuous
 62
   134
100
AcDbPolyline
 90
        2
 70
     0
 10
49.27002
 20
28.800049
 10
49.0
 20
29.0
  0
LWPOLYLINE
  5
1A9
100
AcDbEntity
  8
LAYER01
370
    35
390
0
  6
Continuous
 62
   134
100
AcDbPolyline
 90
        2
 70
     0
 10
49.0
 20
29.0
 10
47.100098
 20
29.0
  0
LWPOLYLINE
  5
1AA
100
AcDbEntity
  8
LAYER01
370
    35
390
0
  6
Continuous
 62
   134
100
AcDbPolyline
 90
        2
 70
     0
 10
47.100098
 20
29.0
 10
46.800049
 20
28.699951
  0
LWPOLYLINE
  5
1AB
100
AcDbEntity
  8
LAYER01
370
    35
390
0
  6
Continuous
 62
   134
100
AcDbPolyline
 90
        2
 70
     0
 10
46.800049
 20
28.699951
 10
46.800049
 20
27.699951
  0
LWPOLYLINE
  5
1AC
100
AcDbEntity
  8
LAYER01
370
    35
390
0
  6
Continuous
 62
   134
100
AcDbPolyline
 90
        2
 70
     0
 10
46.800049
 20
27.699951
 10
47.100098
 20
27.400024
  0
LWPOLYLINE
  5
1AD
100
AcDbEntity
  8
LAYER01
370
    35
390
0
  6
Continuous
 62
   134
100
AcDbPolyline
 90
        2
 70
     0
 10
47.100098
 20
27.400024
 10
49.5
 20
27.400024
  0
LWPOLYLINE
  5
1AE
100
AcDbEntity
  8
LAYER01
370
    35
390
0
  6
Continuous
 62
   134
100
AcDbPolyline
 90
        2
 70
     0
 10
49.5
 20
27.400024
 10
50.0
 20
26.900024
  0
LWPOLYLINE
  5
1AF
100
AcDbEntity
  8
LAYER01
370
    35
390
0
  6
Continuous
 62
   134
100
AcDbPolyline
 90
        2
 70
     0
 10
50.0
 20
26.900024
 10
50.0
 20
23.359985
  0
LWPOLYLINE
  5
1B0
100
AcDbEntity
  8
LAYER01
370
    35
390
0
  6
Continuous
 62
   134
100
AcDbPolyline
 90
        2
 70
     0
 10
50.0
 20
23.359985
 10
49.290039
 20
22.540039
  0
LWPOLYLINE
  5
1B1
100
AcDbEntity
  8
LAYER01
370
    35
390
0
  6
Continuous
 62
   134
100
AcDbPolyline
 90
        2
 70
     0
 10
49.290039
 20
22.540039
 10
48.469971
 20
22.660034
  0
LWPOLYLINE
  5
1B2
100
AcDbEntity
  8
LAYER01
370
    35
390
0
  6
Continuous
 62
   134
100
AcDbPolyline
 90
        2
 70
     0
 10
28.75
 20
26.300049
 10
29.610107
 20
26.800049
  0
LWPOLYLINE
  5
1B3
100
AcDbEntity
  8
LAYER01
370
    35
390
0
  6
Continuous
 62
   134
100
AcDbPolyline
 90
        2
 70
     0
 10
29.610107
 20
26.800049
 10
42.890137
 20
26.800049
  0
LWPOLYLINE
  5
1B4
100
AcDbEntity
  8
LAYER01
370
    35
390
0
  6
Continuous
 62
   134
100
AcDbPolyline
 90
        2
 70
     0
 10
42.890137
 20
26.800049
 10
43.75
 20
26.300049
  0
LWPOLYLINE
  5
1B5
100
AcDbEntity
  8
LAYER01
370
    35
390
0
  6
Continuous
 62
   134
100
AcDbPolyline
 90
        2
 70
     0
 10
43.75
 20
26.300049
 10
44.27002
 20
25.329956
  0
LWPOLYLINE
  5
1B6
100
AcDbEntity
  8
LAYER01
370
    35
390
0
  6
Continuous
 62
   134
100
AcDbPolyline
 90
        2
 70
     0
 10
44.27002
 20
25.329956
 10
45.070068
 20
24.619995
  0
LWPOLYLINE
  5
1B7
100
AcDbEntity
  8
LAYER01
370
    35
390
0
  6
Continuous
 62
   134
100
AcDbPolyline
 90
        2
 70
     0
 10
45.070068
 20
24.619995
 10
48.469971
 20
22.660034
  0
LWPOLYLINE
  5
1B8
100
AcDbEntity
  8
LAYER01
370
    35
390
0
  6
Continuous
 62
   134
100
AcDbPolyline
 90
        2
 70
     0
 10
48.469971
 20
22.660034
 10
46.949951
 20
23.540039
  0
LWPOLYLINE
  5
1B9
100
AcDbEntity
  8
LAYER01
370
    35
390
0
  6
Continuous
 62
   134
100
AcDbPolyline
 90
        2
 70
     0
 10
46.949951
 20
23.540039
 10
46.649902
 20
23.540039
  0
LWPOLYLINE
  5
1BA
100
AcDbEntity
  8
LAYER01
370
    35
390
0
  6
Continuous
 62
   134
100
AcDbPolyline
 90
        2
 70
     0
 10
46.650146
 20
23.540039
 10
46.5
 20
23.280029
  0
LWPOLYLINE
  5
1BB
100
AcDbEntity
  8
LAYER01
370
    35
390
0
  6
Continuous
 62
   134
100
AcDbPolyline
 90
        2
 70
     0
 10
46.5
 20
23.280029
 10
46.640137
 20
22.73999
  0
LWPOLYLINE
  5
1BC
100
AcDbEntity
  8
LAYER01
370
    35
390
0
  6
Continuous
 62
   134
100
AcDbPolyline
 90
        2
 70
     0
 10
46.640137
 20
22.73999
 10
46.880127
 20
22.150024
  0
LWPOLYLINE
  5
1BD
100
AcDbEntity
  8
LAYER01
370
    35
390
0
  6
Continuous
 62
   134
100
AcDbPolyline
 90
        2
 70
     0
 10
46.880127
 20
22.150024
 10
47.199951
 20
21.579956
  0
LWPOLYLINE
  5
1BE
100
AcDbEntity
  8
LAYER01
370
    35
390
0
  6
Continuous
 62
   134
100
AcDbPolyline
 90
        2
 70
     0
 10
47.199951
 20
21.579956
 10
47.580078
 20
21.060059
  0
LWPOLYLINE
  5
1BF
100
AcDbEntity
  8
LAYER01
370
    35
390
0
  6
Continuous
 62
   134
100
AcDbPolyline
 90
        2
 70
     0
 10
47.580078
 20
21.060059
 10
48.030029
 20
20.589966
  0
LWPOLYLINE
  5
1C0
100
AcDbEntity
  8
LAYER01
370
    35
390
0
  6
Continuous
 62
   134
100
AcDbPolyline
 90
        2
 70
     0
 10
48.030029
 20
20.589966
 10
48.540039
 20
20.189941
  0
LWPOLYLINE
  5
1C1
100
AcDbEntity
  8
LAYER01
370
    35
390
0
  6
Continuous
 62
   134
100
AcDbPolyline
 90
        2
 70
     0
 10
48.540039
 20
20.189941
 10
49.100098
 20
19.859985
  0
LWPOLYLINE
  5
1C2
100
AcDbEntity
  8
LAYER01
370
    35
390
0
  6
Continuous
 62
   134
100
AcDbPolyline
 90
        2
 70
     0
 10
49.100098
 20
19.859985
 10
49.689941
 20
19.599976
  0
LWPOLYLINE
  5
1C3
100
AcDbEntity
  8
LAYER01
370
    35
390
0
  6
Continuous
 62
   134
100
AcDbPolyline
 90
        2
 70
     0
 10
49.689941
 20
19.599976
 10
50.0
 20
19.140015
  0
LWPOLYLINE
  5
1C4
100
AcDbEntity
  8
LAYER01
370
    35
390
0
  6
Continuous
 62
   134
100
AcDbPolyline
 90
        2
 70
     0
 10
50.0
 20
19.140015
 10
50.0
 20
14.859985
  0
LWPOLYLINE
  5
1C5
100
AcDbEntity
  8
LAYER01
370
    35
390
0
  6
Continuous
 62
   134
100
AcDbPolyline
 90
        2
 70
     0
 10
50.0
 20
14.859985
 10
49.689941
 20
14.400024
  0
LWPOLYLINE
  5
1C6
100
AcDbEntity
  8
LAYER01
370
    35
390
0
  6
Continuous
 62
   134
100
AcDbPolyline
 90
        2
 70
     0
 10
49.689941
 20
14.400024
 10
49.100098
 20
14.140015
  0
LWPOLYLINE
  5
1C7
100
AcDbEntity
  8
LAYER01
370
    35
390
0
  6
Continuous
 62
   134
100
AcDbPolyline
 90
        2
 70
     0
 10
49.100098
 20
14.140015
 10
48.540039
 20
13.810059
  0
LWPOLYLINE
  5
1C8
100
AcDbEntity
  8
LAYER01
370
    35
390
0
  6
Continuous
 62
   134
100
AcDbPolyline
 90
        2
 70
     0
 10
48.540039
 20
13.810059
 10
48.030029
 20
13.410034
  0
LWPOLYLINE
  5
1C9
100
AcDbEntity
  8
LAYER01
370
    35
390
0
  6
Continuous
 62
   134
100
AcDbPolyline
 90
        2
 70
     0
 10
48.030029
 20
13.410034
 10
47.580078
 20
12.939941
  0
LWPOLYLINE
  5
1CA
100
AcDbEntity
  8
LAYER01
370
    35
390
0
  6
Continuous
 62
   134
100
AcDbPolyline
 90
        2
 70
     0
 10
47.580078
 20
12.939941
 10
47.199951
 20
12.420044
  0
LWPOLYLINE
  5
1CB
100
AcDbEntity
  8
LAYER01
370
    35
390
0
  6
Continuous
 62
   134
100
AcDbPolyline
 90
        2
 70
     0
 10
47.199951
 20
12.420044
 10
46.880127
 20
11.849976
  0
LWPOLYLINE
  5
1CC
100
AcDbEntity
  8
LAYER01
370
    35
390
0
  6
Continuous
 62
   134
100
AcDbPolyline
 90
        2
 70
     0
 10
46.880127
 20
11.849976
 10
46.640137
 20
11.26001
  0
LWPOLYLINE
  5
1CD
100
AcDbEntity
  8
LAYER01
370
    35
390
0
  6
Continuous
 62
   134
100
AcDbPolyline
 90
        2
 70
     0
 10
46.640137
 20
11.26001
 10
46.5
 20
10.719971
  0
LWPOLYLINE
  5
1CE
100
AcDbEntity
  8
LAYER01
370
    35
390
0
  6
Continuous
 62
   134
100
AcDbPolyline
 90
        2
 70
     0
 10
46.5
 20
10.719971
 10
46.650146
 20
10.459961
  0
LWPOLYLINE
  5
1CF
100
AcDbEntity
  8
LAYER01
370
    35
390
0
  6
Continuous
 62
   134
100
AcDbPolyline
 90
        2
 70
     0
 10
46.650146
 20
10.459961
 10
46.949951
 20
10.459961
  0
LWPOLYLINE
  5
1D0
100
AcDbEntity
  8
LAYER01
370
    35
390
0
  6
Continuous
 62
   134
100
AcDbPolyline
 90
        2
 70
     0
 10
46.949951
 20
10.459961
 10
48.469971
 20
11.339966
  0
LWPOLYLINE
  5
1D1
100
AcDbEntity
  8
LAYER01
370
    35
390
0
  6
Continuous
 62
   134
100
AcDbPolyline
 90
        2
 70
     0
 10
28.75
 20
7.699951
 10
29.610107
 20
7.199951
  0
LWPOLYLINE
  5
1D2
100
AcDbEntity
  8
LAYER01
370
    35
390
0
  6
Continuous
 62
   134
100
AcDbPolyline
 90
        2
 70
     0
 10
29.610107
 20
7.199951
 10
42.890137
 20
7.199951
  0
LWPOLYLINE
  5
1D3
100
AcDbEntity
  8
LAYER01
370
    35
390
0
  6
Continuous
 62
   134
100
AcDbPolyline
 90
        2
 70
     0
 10
42.890137
 20
7.199951
 10
43.75
 20
7.699951
  0
LWPOLYLINE
  5
1D4
100
AcDbEntity
  8
LAYER01
370
    35
390
0
  6
Continuous
 62
   134
100
AcDbPolyline
 90
        2
 70
     0
 10
43.75
 20
7.699951
 10
44.27002
 20
8.670044
  0
LWPOLYLINE
  5
1D5
100
AcDbEntity
  8
LAYER01
370
    35
390
0
  6
Continuous
 62
   134
100
AcDbPolyline
 90
        2
 70
     0
 10
44.27002
 20
8.670044
 10
45.070068
 20
9.380005
  0
LWPOLYLINE
  5
1D6
100
AcDbEntity
  8
LAYER01
370
    35
390
0
  6
Continuous
 62
   134
100
AcDbPolyline
 90
        2
 70
     0
 10
45.070068
 20
9.380005
 10
48.469971
 20
11.339966
  0
LWPOLYLINE
  5
1D7
100
AcDbEntity
  8
LAYER01
370
    35
390
0
  6
Continuous
 62
   134
100
AcDbPolyline
 90
        2
 70
     0
 10
48.469971
 20
11.339966
 10
49.550049
 20
11.339966
  0
LWPOLYLINE
  5
1D8
100
AcDbEntity
  8
LAYER01
370
    35
390
0
  6
Continuous
 62
   134
100
AcDbPolyline
 90
        2
 70
     0
 10
49.550049
 20
11.339966
 10
50.0
 20
10.640015
  0
LWPOLYLINE
  5
1D9
100
AcDbEntity
  8
LAYER01
370
    35
390
0
  6
Continuous
 62
   134
100
AcDbPolyline
 90
        2
 70
     0
 10
50.0
 20
10.640015
 10
50.0
 20
7.099976
  0
LWPOLYLINE
  5
1DA
100
AcDbEntity
  8
LAYER01
370
    35
390
0
  6
Continuous
 62
   134
100
AcDbPolyline
 90
        2
 70
     0
 10
50.0
 20
7.099976
 10
49.5
 20
6.599976
  0
LWPOLYLINE
  5
1DB
100
AcDbEntity
  8
LAYER01
370
    35
390
0
  6
Continuous
 62
   134
100
AcDbPolyline
 90
        2
 70
     0
 10
49.5
 20
6.599976
 10
47.100098
 20
6.599976
  0
LWPOLYLINE
  5
1DC
100
AcDbEntity
  8
LAYER01
370
    35
390
0
  6
Continuous
 62
   134
100
AcDbPolyline
 90
        2
 70
     0
 10
47.100098
 20
6.599976
 10
46.800049
 20
6.300049
  0
LWPOLYLINE
  5
1DD
100
AcDbEntity
  8
LAYER01
370
    35
390
0
  6
Continuous
 62
   134
100
AcDbPolyline
 90
        2
 70
     0
 10
46.800049
 20
6.300049
 10
46.800049
 20
5.300049
  0
LWPOLYLINE
  5
1DE
100
AcDbEntity
  8
LAYER01
370
    35
390
0
  6
Continuous
 62
   134
100
AcDbPolyline
 90
        2
 70
     0
 10
46.800049
 20
5.300049
 10
47.100098
 20
5.0
  0
LWPOLYLINE
  5
1DF
100
AcDbEntity
  8
LAYER01
370
    35
390
0
  6
Continuous
 62
   134
100
AcDbPolyline
 90
        2
 70
     0
 10
47.100098
 20
5.0
 10
49.0
 20
5.0
  0
LWPOLYLINE
  5
1E0
100
AcDbEntity
  8
LAYER01
370
    35
390
0
  6
Continuous
 62
   134
100
AcDbPolyline
 90
        2
 70
     0
 10
49.0
 20
5.0
 10
49.72998
 20
5.199951
  0
LWPOLYLINE
  5
1E1
100
AcDbEntity
  8
LAYER01
370
    35
390
0
  6
Continuous
 62
   134
100
AcDbPolyline
 90
        2
 70
     0
 10
49.72998
 20
5.199951
 10
50.0
 20
5.0
  0
LWPOLYLINE
  5
1E2
100
AcDbEntity
  8
LAYER01
370
    35
390
0
  6
Continuous
 62
   134
100
AcDbPolyline
 90
        2
 70
     0
 10
50.0
 20
5.0
 10
51.5
 20
5.0
  0
LWPOLYLINE
  5
1E3
100
AcDbEntity
  8
LAYER01
370
    35
390
0
  6
Continuous
 62
   134
100
AcDbPolyline
 90
        2
 70
     0
 10
51.5
 20
5.0
 10
52.0
 20
5.5
  0
LWPOLYLINE
  5
1E4
100
AcDbEntity
  8
LAYER01
370
    35
390
0
  6
Continuous
 62
   134
100
AcDbPolyline
 90
        2
 70
     0
 10
52.0
 20
5.5
 10
52.0
 20
6.5
  0
LWPOLYLINE
  5
1E5
100
AcDbEntity
  8
LAYER01
370
    35
390
0
  6
Continuous
 62
   134
100
AcDbPolyline
 90
        2
 70
     0
 10
52.0
 20
6.5
 10
52.5
 20
7.0
  0
LWPOLYLINE
  5
1E6
100
AcDbEntity
  8
LAYER01
370
    35
390
0
  6
Continuous
 62
   134
100
AcDbPolyline
 90
        2
 70
     0
 10
52.5
 20
7.0
 10
61.570068
 20
7.0
  0
LWPOLYLINE
  5
1E7
100
AcDbEntity
  8
LAYER01
370
    35
390
0
  6
Continuous
 62
   134
100
AcDbPolyline
 90
        2
 70
     0
 10
61.570068
 20
7.0
 10
62.570068
 20
6.069946
  0
LWPOLYLINE
  5
1E8
100
AcDbEntity
  8
LAYER01
370
    35
390
0
  6
Continuous
 62
   134
100
AcDbPolyline
 90
        2
 70
     0
 10
62.570068
 20
6.069946
 10
63.0
 20
0.0
  0
LWPOLYLINE
  5
1E9
100
AcDbEntity
  8
LAYER01
370
    35
390
0
  6
Continuous
 62
   134
100
AcDbPolyline
 90
        2
 70
     0
 10
63.0
 20
0.0
 10
63.0
 20
-15.900024
  0
LWPOLYLINE
  5
1EA
100
AcDbEntity
  8
LAYER01
370
    35
390
0
  6
Continuous
 62
   134
100
AcDbPolyline
 90
        2
 70
     0
 10
63.0
 20
-15.900024
 10
62.5
 20
-16.400024
  0
LWPOLYLINE
  5
1EB
100
AcDbEntity
  8
LAYER01
370
    35
390
0
  6
Continuous
 62
   134
100
AcDbPolyline
 90
        2
 70
     0
 10
62.5
 20
-16.400024
 10
61.699951
 20
-16.400024
  0
LWPOLYLINE
  5
1EC
100
AcDbEntity
  8
LAYER01
370
    35
390
0
  6
Continuous
 62
   134
100
AcDbPolyline
 90
        2
 70
     0
 10
61.699951
 20
-16.400024
 10
61.199951
 20
-15.900024
  0
LWPOLYLINE
  5
1ED
100
AcDbEntity
  8
LAYER01
370
    35
390
0
  6
Continuous
 62
   134
100
AcDbPolyline
 90
        2
 70
     0
 10
61.199951
 20
-15.900024
 10
61.199951
 20
-15.400024
  0
LWPOLYLINE
  5
1EE
100
AcDbEntity
  8
LAYER01
370
    35
390
0
  6
Continuous
 62
   134
100
AcDbPolyline
 90
        2
 70
     0
 10
61.199951
 20
-15.400024
 10
60.5
 20
-14.900024
  0
LWPOLYLINE
  5
1EF
100
AcDbEntity
  8
LAYER01
370
    35
390
0
  6
Continuous
 62
   134
100
AcDbPolyline
 90
        2
 70
     0
 10
24.030029
 20
22.660034
 10
27.429932
 20
24.619995
  0
LWPOLYLINE
  5
1F0
100
AcDbEntity
  8
LAYER01
370
    35
390
0
  6
Continuous
 62
   134
100
AcDbPolyline
 90
        2
 70
     0
 10
27.429932
 20
24.619995
 10
28.22998
 20
25.329956
  0
LWPOLYLINE
  5
1F1
100
AcDbEntity
  8
LAYER01
370
    35
390
0
  6
Continuous
 62
   134
100
AcDbPolyline
 90
        2
 70
     0
 10
28.22998
 20
25.329956
 10
28.75
 20
26.300049
  0
LWPOLYLINE
  5
1F2
100
AcDbEntity
  8
LAYER01
370
    35
390
0
  6
Continuous
 62
   134
100
AcDbPolyline
 90
        2
 70
     0
 10
48.469971
 20
22.660034
 10
49.550049
 20
22.660034
  0
LWPOLYLINE
  5
1F3
100
AcDbEntity
  8
LAYER01
370
    35
390
0
  6
Continuous
 62
   134
100
AcDbPolyline
 90
        2
 70
     0
 10
49.550049
 20
22.660034
 10
50.0
 20
23.359985
  0
LWPOLYLINE
  5
1F4
100
AcDbEntity
  8
LAYER01
370
    35
390
0
  6
Continuous
 62
   134
100
AcDbPolyline
 90
        2
 70
     0
 10
50.0
 20
23.359985
 10
50.0
 20
26.900024
  0
LWPOLYLINE
  5
1F5
100
AcDbEntity
  8
LAYER01
370
    35
390
0
  6
Continuous
 62
   134
100
AcDbPolyline
 90
        2
 70
     0
 10
50.0
 20
26.900024
 10
49.5
 20
27.400024
  0
LWPOLYLINE
  5
1F6
100
AcDbEntity
  8
LAYER01
370
    35
390
0
  6
Continuous
 62
   134
100
AcDbPolyline
 90
        2
 70
     0
 10
49.5
 20
27.400024
 10
47.100098
 20
27.400024
  0
LWPOLYLINE
  5
1F7
100
AcDbEntity
  8
LAYER01
370
    35
390
0
  6
Continuous
 62
   134
100
AcDbPolyline
 90
        2
 70
     0
 10
47.100098
 20
27.400024
 10
46.800049
 20
27.699951
  0
LWPOLYLINE
  5
1F8
100
AcDbEntity
  8
LAYER01
370
    35
390
0
  6
Continuous
 62
   134
100
AcDbPolyline
 90
        2
 70
     0
 10
46.800049
 20
27.699951
 10
46.800049
 20
28.5
  0
LWPOLYLINE
  5
1F9
100
AcDbEntity
  8
LAYER01
370
    35
390
0
  6
Continuous
 62
   134
100
AcDbPolyline
 90
        2
 70
     0
 10
46.800049
 20
28.5
 10
46.300049
 20
29.0
  0
LWPOLYLINE
  5
1FA
100
AcDbEntity
  8
LAYER01
370
    35
390
0
  6
Continuous
 62
   134
100
AcDbPolyline
 90
        2
 70
     0
 10
46.300049
 20
29.0
 10
45.300049
 20
29.0
  0
LWPOLYLINE
  5
1FB
100
AcDbEntity
  8
LAYER01
370
    35
390
0
  6
Continuous
 62
   134
100
AcDbPolyline
 90
        2
 70
     0
 10
45.300049
 20
29.0
 10
45.300049
 20
33.300049
  0
LWPOLYLINE
  5
1FC
100
AcDbEntity
  8
LAYER01
370
    35
390
0
  6
Continuous
 62
   134
100
AcDbPolyline
 90
        2
 70
     0
 10
45.300049
 20
33.300049
 10
44.800049
 20
33.800049
  0
LWPOLYLINE
  5
1FD
100
AcDbEntity
  8
LAYER01
370
    35
390
0
  6
Continuous
 62
   134
100
AcDbPolyline
 90
        2
 70
     0
 10
44.800049
 20
33.800049
 10
43.969971
 20
33.800049
  0
LWPOLYLINE
  5
1FE
100
AcDbEntity
  8
LAYER01
370
    35
390
0
  6
Continuous
 62
   134
100
AcDbPolyline
 90
        2
 70
     0
 10
43.969971
 20
33.800049
 10
43.0
 20
33.060059
  0
LWPOLYLINE
  5
1FF
100
AcDbEntity
  8
LAYER01
370
    35
390
0
  6
Continuous
 62
   134
100
AcDbPolyline
 90
        2
 70
     0
 10
43.0
 20
33.060059
 10
42.800049
 20
32.300049
  0
LWPOLYLINE
  5
200
100
AcDbEntity
  8
LAYER01
370
    35
390
0
  6
Continuous
 62
   134
100
AcDbPolyline
 90
        2
 70
     0
 10
42.800049
 20
32.300049
 10
43.800049
 20
32.300049
  0
LWPOLYLINE
  5
201
100
AcDbEntity
  8
LAYER01
370
    35
390
0
  6
Continuous
 62
   134
100
AcDbPolyline
 90
        2
 70
     0
 10
43.800049
 20
32.300049
 10
43.800049
 20
30.0
  0
LWPOLYLINE
  5
202
100
AcDbEntity
  8
LAYER01
370
    35
390
0
  6
Continuous
 62
   134
100
AcDbPolyline
 90
        2
 70
     0
 10
43.800049
 20
30.0
 10
42.800049
 20
29.0
  0
LWPOLYLINE
  5
203
100
AcDbEntity
  8
LAYER01
370
    35
390
0
  6
Continuous
 62
   134
100
AcDbPolyline
 90
        2
 70
     0
 10
42.800049
 20
29.0
 10
39.800049
 20
29.0
  0
LWPOLYLINE
  5
204
100
AcDbEntity
  8
LAYER01
370
    35
390
0
  6
Continuous
 62
   134
100
AcDbPolyline
 90
        2
 70
     0
 10
39.800049
 20
29.0
 10
38.800049
 20
30.0
  0
LWPOLYLINE
  5
205
100
AcDbEntity
  8
LAYER01
370
    35
390
0
  6
Continuous
 62
   134
100
AcDbPolyline
 90
        2
 70
     0
 10
38.800049
 20
30.0
 10
38.800049
 20
32.300049
  0
LWPOLYLINE
  5
206
100
AcDbEntity
  8
LAYER01
370
    35
390
0
  6
Continuous
 62
   134
100
AcDbPolyline
 90
        2
 70
     0
 10
38.800049
 20
32.300049
 10
39.800049
 20
32.300049
  0
LWPOLYLINE
  5
207
100
AcDbEntity
  8
LAYER01
370
    35
390
0
  6
Continuous
 62
   134
100
AcDbPolyline
 90
        2
 70
     0
 10
39.800049
 20
32.300049
 10
39.600098
 20
33.060059
  0
LWPOLYLINE
  5
208
100
AcDbEntity
  8
LAYER01
370
    35
390
0
  6
Continuous
 62
   134
100
AcDbPolyline
 90
        2
 70
     0
 10
39.600098
 20
33.060059
 10
38.630127
 20
33.800049
  0
LWPOLYLINE
  5
209
100
AcDbEntity
  8
LAYER01
370
    35
390
0
  6
Continuous
 62
   134
100
AcDbPolyline
 90
        2
 70
     0
 10
38.630127
 20
33.800049
 10
37.800049
 20
33.800049
  0
LWPOLYLINE
  5
20A
100
AcDbEntity
  8
LAYER01
370
    35
390
0
  6
Continuous
 62
   134
100
AcDbPolyline
 90
        2
 70
     0
 10
37.800049
 20
33.800049
 10
37.300049
 20
33.300049
  0
LWPOLYLINE
  5
20B
100
AcDbEntity
  8
LAYER01
370
    35
390
0
  6
Continuous
 62
   134
100
AcDbPolyline
 90
        2
 70
     0
 10
37.300049
 20
33.300049
 10
37.300049
 20
29.0
  0
LWPOLYLINE
  5
20C
100
AcDbEntity
  8
LAYER01
370
    35
390
0
  6
Continuous
 62
   134
100
AcDbPolyline
 90
        2
 70
     0
 10
37.300049
 20
29.0
 10
26.199951
 20
29.0
  0
LWPOLYLINE
  5
20D
100
AcDbEntity
  8
LAYER01
370
    35
390
0
  6
Continuous
 62
   134
100
AcDbPolyline
 90
        2
 70
     0
 10
26.199951
 20
29.0
 10
25.699951
 20
28.5
  0
LWPOLYLINE
  5
20E
100
AcDbEntity
  8
LAYER01
370
    35
390
0
  6
Continuous
 62
   134
100
AcDbPolyline
 90
        2
 70
     0
 10
25.699951
 20
28.5
 10
25.699951
 20
27.699951
  0
LWPOLYLINE
  5
20F
100
AcDbEntity
  8
LAYER01
370
    35
390
0
  6
Continuous
 62
   134
100
AcDbPolyline
 90
        2
 70
     0
 10
42.800049
 20
1.699951
 10
43.800049
 20
1.699951
  0
LWPOLYLINE
  5
210
100
AcDbEntity
  8
LAYER01
370
    35
390
0
  6
Continuous
 62
   134
100
AcDbPolyline
 90
        2
 70
     0
 10
43.800049
 20
1.699951
 10
43.800049
 20
4.0
  0
LWPOLYLINE
  5
211
100
AcDbEntity
  8
LAYER01
370
    35
390
0
  6
Continuous
 62
   134
100
AcDbPolyline
 90
        2
 70
     0
 10
43.800049
 20
4.0
 10
42.800049
 20
5.0
  0
LWPOLYLINE
  5
212
100
AcDbEntity
  8
LAYER01
370
    35
390
0
  6
Continuous
 62
   134
100
AcDbPolyline
 90
        2
 70
     0
 10
42.800049
 20
5.0
 10
39.800049
 20
5.0
  0
LWPOLYLINE
  5
213
100
AcDbEntity
  8
LAYER01
370
    35
390
0
  6
Continuous
 62
   134
100
AcDbPolyline
 90
        2
 70
     0
 10
39.800049
 20
5.0
 10
38.800049
 20
4.0
  0
LWPOLYLINE
  5
214
100
AcDbEntity
  8
LAYER01
370
    35
390
0
  6
Continuous
 62
   134
100
AcDbPolyline
 90
        2
 70
     0
 10
38.800049
 20
4.0
 10
38.800049
 20
1.699951
  0
LWPOLYLINE
  5
215
100
AcDbEntity
  8
LAYER01
370
    35
390
0
  6
Continuous
 62
   134
100
AcDbPolyline
 90
        2
 70
     0
 10
38.800049
 20
1.699951
 10
39.800049
 20
1.699951
  0
LWPOLYLINE
  5
216
100
AcDbEntity
  8
LAYER01
370
    35
390
0
  6
Continuous
 62
   134
100
AcDbPolyline
 90
        2
 70
     0
 10
39.800049
 20
1.699951
 10
39.600098
 20
0.939941
  0
LWPOLYLINE
  5
217
100
AcDbEntity
  8
LAYER01
370
    35
390
0
  6
Continuous
 62
   134
100
AcDbPolyline
 90
        2
 70
     0
 10
39.600098
 20
0.939941
 10
38.630127
 20
0.199951
  0
LWPOLYLINE
  5
218
100
AcDbEntity
  8
LAYER01
370
    35
390
0
  6
Continuous
 62
   134
100
AcDbPolyline
 90
        2
 70
     0
 10
38.630127
 20
0.199951
 10
37.800049
 20
0.199951
  0
LWPOLYLINE
  5
219
100
AcDbEntity
  8
LAYER01
370
    35
390
0
  6
Continuous
 62
   134
100
AcDbPolyline
 90
        2
 70
     0
 10
37.800049
 20
0.199951
 10
37.300049
 20
0.699951
  0
LWPOLYLINE
  5
21A
100
AcDbEntity
  8
LAYER01
370
    35
390
0
  6
Continuous
 62
   134
100
AcDbPolyline
 90
        2
 70
     0
 10
37.300049
 20
0.699951
 10
37.300049
 20
5.0
  0
LWPOLYLINE
  5
21B
100
AcDbEntity
  8
LAYER01
370
    35
390
0
  6
Continuous
 62
   134
100
AcDbPolyline
 90
        2
 70
     0
 10
37.300049
 20
5.0
 10
26.199951
 20
5.0
  0
LWPOLYLINE
  5
21C
100
AcDbEntity
  8
LAYER01
370
    35
390
0
  6
Continuous
 62
   134
100
AcDbPolyline
 90
        2
 70
     0
 10
26.199951
 20
5.0
 10
25.699951
 20
5.5
  0
LWPOLYLINE
  5
21D
100
AcDbEntity
  8
LAYER01
370
    35
390
0
  6
Continuous
 62
   134
100
AcDbPolyline
 90
        2
 70
     0
 10
25.699951
 20
5.5
 10
25.699951
 20
6.300049
  0
LWPOLYLINE
  5
21E
100
AcDbEntity
  8
LAYER01
370
    35
390
0
  6
Continuous
 62
   134
100
AcDbPolyline
 90
        2
 70
     0
 10
25.699951
 20
6.300049
 10
25.400146
 20
6.599976
  0
LWPOLYLINE
  5
21F
100
AcDbEntity
  8
LAYER01
370
    35
390
0
  6
Continuous
 62
   134
100
AcDbPolyline
 90
        2
 70
     0
 10
25.400146
 20
6.599976
 10
23.0
 20
6.599976
  0
LWPOLYLINE
  5
220
100
AcDbEntity
  8
LAYER01
370
    35
390
0
  6
Continuous
 62
   134
100
AcDbPolyline
 90
        2
 70
     0
 10
23.0
 20
6.599976
 10
22.5
 20
7.099976
  0
LWPOLYLINE
  5
221
100
AcDbEntity
  8
LAYER01
370
    35
390
0
  6
Continuous
 62
   134
100
AcDbPolyline
 90
        2
 70
     0
 10
22.5
 20
7.099976
 10
22.5
 20
10.640015
  0
LWPOLYLINE
  5
222
100
AcDbEntity
  8
LAYER01
370
    35
390
0
  6
Continuous
 62
   134
100
AcDbPolyline
 90
        2
 70
     0
 10
22.5
 20
10.640015
 10
23.209961
 20
11.459961
  0
LWPOLYLINE
  5
223
100
AcDbEntity
  8
LAYER01
370
    35
390
0
  6
Continuous
 62
   134
100
AcDbPolyline
 90
        2
 70
     0
 10
23.209961
 20
11.459961
 10
24.030029
 20
11.339966
  0
LWPOLYLINE
  5
224
100
AcDbEntity
  8
LAYER01
370
    35
390
0
  6
Continuous
 62
   134
100
AcDbPolyline
 90
        2
 70
     0
 10
24.030029
 20
11.339966
 10
27.429932
 20
9.380005
  0
LWPOLYLINE
  5
225
100
AcDbEntity
  8
LAYER01
370
    35
390
0
  6
Continuous
 62
   134
100
AcDbPolyline
 90
        2
 70
     0
 10
27.429932
 20
9.380005
 10
28.22998
 20
8.670044
  0
LWPOLYLINE
  5
226
100
AcDbEntity
  8
LAYER01
370
    35
390
0
  6
Continuous
 62
   134
100
AcDbPolyline
 90
        2
 70
     0
 10
28.22998
 20
8.670044
 10
28.75
 20
7.699951
  0
LWPOLYLINE
  5
227
100
AcDbEntity
  8
LAYER01
370
    35
390
0
  6
Continuous
 62
   134
100
AcDbPolyline
 90
        2
 70
     0
 10
48.469971
 20
11.339966
 10
49.550049
 20
11.339966
  0
LWPOLYLINE
  5
228
100
AcDbEntity
  8
LAYER01
370
    35
390
0
  6
Continuous
 62
   134
100
AcDbPolyline
 90
        2
 70
     0
 10
49.550049
 20
11.339966
 10
50.0
 20
10.640015
  0
LWPOLYLINE
  5
229
100
AcDbEntity
  8
LAYER01
370
    35
390
0
  6
Continuous
 62
   134
100
AcDbPolyline
 90
        2
 70
     0
 10
50.0
 20
10.640015
 10
50.0
 20
7.099976
  0
LWPOLYLINE
  5
22A
100
AcDbEntity
  8
LAYER01
370
    35
390
0
  6
Continuous
 62
   134
100
AcDbPolyline
 90
        2
 70
     0
 10
50.0
 20
7.099976
 10
49.5
 20
6.599976
  0
LWPOLYLINE
  5
22B
100
AcDbEntity
  8
LAYER01
370
    35
390
0
  6
Continuous
 62
   134
100
AcDbPolyline
 90
        2
 70
     0
 10
49.5
 20
6.599976
 10
47.100098
 20
6.599976
  0
LWPOLYLINE
  5
22C
100
AcDbEntity
  8
LAYER01
370
    35
390
0
  6
Continuous
 62
   134
100
AcDbPolyline
 90
        2
 70
     0
 10
47.100098
 20
6.599976
 10
46.800049
 20
6.300049
  0
LWPOLYLINE
  5
22D
100
AcDbEntity
  8
LAYER01
370
    35
390
0
  6
Continuous
 62
   134
100
AcDbPolyline
 90
        2
 70
     0
 10
46.800049
 20
6.300049
 10
46.800049
 20
5.5
  0
LWPOLYLINE
  5
22E
100
AcDbEntity
  8
LAYER01
370
    35
390
0
  6
Continuous
 62
   134
100
AcDbPolyline
 90
        2
 70
     0
 10
46.800049
 20
5.5
 10
46.300049
 20
5.0
  0
LWPOLYLINE
  5
22F
100
AcDbEntity
  8
LAYER01
370
    35
390
0
  6
Continuous
 62
   134
100
AcDbPolyline
 90
        2
 70
     0
 10
46.300049
 20
5.0
 10
45.300049
 20
5.0
  0
LWPOLYLINE
  5
230
100
AcDbEntity
  8
LAYER01
370
    35
390
0
  6
Continuous
 62
   134
100
AcDbPolyline
 90
        2
 70
     0
 10
45.300049
 20
5.0
 10
45.300049
 20
0.699951
  0
LWPOLYLINE
  5
231
100
AcDbEntity
  8
LAYER01
370
    35
390
0
  6
Continuous
 62
   134
100
AcDbPolyline
 90
        2
 70
     0
 10
45.300049
 20
0.699951
 10
44.800049
 20
0.199951
  0
LWPOLYLINE
  5
232
100
AcDbEntity
  8
LAYER01
370
    35
390
0
  6
Continuous
 62
   134
100
AcDbPolyline
 90
        2
 70
     0
 10
44.800049
 20
0.199951
 10
43.969971
 20
0.199951
  0
LWPOLYLINE
  5
233
100
AcDbEntity
  8
LAYER01
370
    35
390
0
  6
Continuous
 62
   134
100
AcDbPolyline
 90
        2
 70
     0
 10
43.969971
 20
0.199951
 10
43.0
 20
0.939941
  0
LWPOLYLINE
  5
234
100
AcDbEntity
  8
LAYER01
370
    35
390
0
  6
Continuous
 62
   134
100
AcDbPolyline
 90
        2
 70
     0
 10
43.0
 20
0.939941
 10
42.800049
 20
1.699951
  0
LWPOLYLINE
  5
235
100
AcDbEntity
  8
LAYER01
370
    35
390
0
  6
Continuous
 62
   134
100
AcDbPolyline
 90
        2
 70
     0
 10
30.5
 20
42.027344
 10
56.5
 20
42.027344
  0
LWPOLYLINE
  5
236
100
AcDbEntity
  8
LAYER01
370
    35
390
0
  6
Continuous
 62
   134
100
AcDbPolyline
 90
        2
 70
     0
 10
34.5
 20
50.027344
 10
50.5
 20
50.027344
  0
LWPOLYLINE
  5
237
100
AcDbEntity
  8
LAYER01
370
    35
390
0
  6
Continuous
 62
   134
100
AcDbPolyline
 90
        2
 70
     0
 10
59.199951
 20
54.403564
 10
59.699951
 20
53.903564
  0
LWPOLYLINE
  5
238
100
AcDbEntity
  8
LAYER01
370
    35
390
0
  6
Continuous
 62
   134
100
AcDbPolyline
 90
        2
 70
     0
 10
59.699951
 20
53.903564
 10
61.600098
 20
53.903564
  0
LWPOLYLINE
  5
239
100
AcDbEntity
  8
LAYER01
370
    35
390
0
  6
Continuous
 62
   134
100
AcDbPolyline
 90
        2
 70
     0
 10
61.600098
 20
53.903564
 10
62.100098
 20
54.403564
  0
LWPOLYLINE
  5
23A
100
AcDbEntity
  8
LAYER01
370
    35
390
0
  6
Continuous
 62
   134
100
AcDbPolyline
 90
        2
 70
     0
 10
62.100098
 20
54.403564
 10
62.100098
 20
55.00354
  0
LWPOLYLINE
  5
23B
100
AcDbEntity
  8
LAYER01
370
    35
390
0
  6
Continuous
 62
   134
100
AcDbPolyline
 90
        2
 70
     0
 10
62.100098
 20
55.00354
 10
61.600098
 20
55.50354
  0
LWPOLYLINE
  5
23C
100
AcDbEntity
  8
LAYER01
370
    35
390
0
  6
Continuous
 62
   134
100
AcDbPolyline
 90
        2
 70
     0
 10
61.600098
 20
55.50354
 10
59.699951
 20
55.50354
  0
LWPOLYLINE
  5
23D
100
AcDbEntity
  8
LAYER01
370
    35
390
0
  6
Continuous
 62
   134
100
AcDbPolyline
 90
        2
 70
     0
 10
59.699951
 20
55.50354
 10
59.199951
 20
55.00354
  0
LWPOLYLINE
  5
23E
100
AcDbEntity
  8
LAYER01
370
    35
390
0
  6
Continuous
 62
   134
100
AcDbPolyline
 90
        2
 70
     0
 10
59.199951
 20
55.00354
 10
59.199951
 20
54.403564
  0
LWPOLYLINE
  5
23F
100
AcDbEntity
  8
LAYER01
370
    35
390
0
  6
Continuous
 62
   134
100
AcDbPolyline
 90
        2
 70
     0
 10
59.449951
 20
59.693481
 10
60.5
 20
59.603516
  0
LWPOLYLINE
  5
240
100
AcDbEntity
  8
LAYER01
370
    35
390
0
  6
Continuous
 62
   134
100
AcDbPolyline
 90
        2
 70
     0
 10
60.5
 20
59.603516
 10
60.900146
 20
59.203491
  0
LWPOLYLINE
  5
241
100
AcDbEntity
  8
LAYER01
370
    35
390
0
  6
Continuous
 62
   134
100
AcDbPolyline
 90
        2
 70
     0
 10
60.900146
 20
59.203491
 10
60.0
 20
59.203491
  0
LWPOLYLINE
  5
242
100
AcDbEntity
  8
LAYER01
370
    35
390
0
  6
Continuous
 62
   134
100
AcDbPolyline
 90
        2
 70
     0
 10
60.0
 20
59.203491
 10
60.0
 20
57.303589
  0
LWPOLYLINE
  5
243
100
AcDbEntity
  8
LAYER01
370
    35
390
0
  6
Continuous
 62
   134
100
AcDbPolyline
 90
        2
 70
     0
 10
60.0
 20
57.303589
 10
59.52002
 20
56.963501
  0
LWPOLYLINE
  5
244
100
AcDbEntity
  8
LAYER01
370
    35
390
0
  6
Continuous
 62
   134
100
AcDbPolyline
 90
        2
 70
     0
 10
59.52002
 20
56.963501
 10
59.52002
 20
56.653564
  0
LWPOLYLINE
  5
245
100
AcDbEntity
  8
LAYER01
370
    35
390
0
  6
Continuous
 62
   134
100
AcDbPolyline
 90
        2
 70
     0
 10
59.52002
 20
56.653564
 10
60.0
 20
56.303589
  0
LWPOLYLINE
  5
246
100
AcDbEntity
  8
LAYER01
370
    35
390
0
  6
Continuous
 62
   134
100
AcDbPolyline
 90
        2
 70
     0
 10
60.0
 20
56.303589
 10
61.300049
 20
56.303589
  0
LWPOLYLINE
  5
247
100
AcDbEntity
  8
LAYER01
370
    35
390
0
  6
Continuous
 62
   134
100
AcDbPolyline
 90
        2
 70
     0
 10
61.300049
 20
56.303589
 10
61.600098
 20
56.603516
  0
POINT
  5
248
100
AcDbEntity
  8
LAYER01
390
0
  6
Continuous
 62
   134
100
AcDbPoint
 10
61.600098
 20
56.603516
 30
0.0
  0
LWPOLYLINE
  5
249
100
AcDbEntity
  8
LAYER01
370
    35
390
0
  6
Continuous
 62
   134
100
AcDbPolyline
 90
        2
 70
     0
 10
61.600098
 20
56.703491
 10
61.830078
 20
57.00354
  0
LWPOLYLINE
  5
24A
100
AcDbEntity
  8
LAYER01
370
    35
390
0
  6
Continuous
 62
   134
100
AcDbPolyline
 90
        2
 70
     0
 10
61.830078
 20
57.00354
 10
62.110107
 20
56.923584
  0
LWPOLYLINE
  5
24B
100
AcDbEntity
  8
LAYER01
370
    35
390
0
  6
Continuous
 62
   134
100
AcDbPolyline
 90
        2
 70
     0
 10
62.110107
 20
56.923584
 10
63.150146
 20
55.883545
  0
LWPOLYLINE
  5
24C
100
AcDbEntity
  8
LAYER01
370
    35
390
0
  6
Continuous
 62
   134
100
AcDbPolyline
 90
        2
 70
     0
 10
63.150146
 20
55.883545
 10
63.300049
 20
55.52356
  0
LWPOLYLINE
  5
24D
100
AcDbEntity
  8
LAYER01
370
    35
390
0
  6
Continuous
 62
   134
100
AcDbPolyline
 90
        2
 70
     0
 10
63.300049
 20
55.52356
 10
63.300049
 20
53.883545
  0
LWPOLYLINE
  5
24E
100
AcDbEntity
  8
LAYER01
370
    35
390
0
  6
Continuous
 62
   134
100
AcDbPolyline
 90
        2
 70
     0
 10
63.300049
 20
53.883545
 10
63.150146
 20
53.533569
  0
LWPOLYLINE
  5
24F
100
AcDbEntity
  8
LAYER01
370
    35
390
0
  6
Continuous
 62
   134
100
AcDbPolyline
 90
        2
 70
     0
 10
63.150146
 20
53.533569
 10
62.110107
 20
52.49353
  0
LWPOLYLINE
  5
250
100
AcDbEntity
  8
LAYER01
370
    35
390
0
  6
Continuous
 62
   134
100
AcDbPolyline
 90
        2
 70
     0
 10
62.110107
 20
52.49353
 10
61.929932
 20
52.403564
  0
LWPOLYLINE
  5
251
100
AcDbEntity
  8
LAYER01
370
    35
390
0
  6
Continuous
 62
   134
100
AcDbPolyline
 90
        2
 70
     0
 10
61.929932
 20
52.403564
 10
61.669922
 20
52.51355
  0
LWPOLYLINE
  5
252
100
AcDbEntity
  8
LAYER01
370
    35
390
0
  6
Continuous
 62
   134
100
AcDbPolyline
 90
        2
 70
     0
 10
61.669922
 20
52.51355
 10
61.51001
 20
53.01355
  0
LWPOLYLINE
  5
253
100
AcDbEntity
  8
LAYER01
370
    35
390
0
  6
Continuous
 62
   134
100
AcDbPolyline
 90
        2
 70
     0
 10
61.51001
 20
53.01355
 10
61.300049
 20
53.103516
  0
LWPOLYLINE
  5
254
100
AcDbEntity
  8
LAYER01
370
    35
390
0
  6
Continuous
 62
   134
100
AcDbPolyline
 90
        2
 70
     0
 10
61.300049
 20
53.103516
 10
60.0
 20
53.103516
  0
LWPOLYLINE
  5
255
100
AcDbEntity
  8
LAYER01
370
    35
390
0
  6
Continuous
 62
   134
100
AcDbPolyline
 90
        2
 70
     0
 10
60.0
 20
53.103516
 10
59.52002
 20
52.76355
  0
LWPOLYLINE
  5
256
100
AcDbEntity
  8
LAYER01
370
    35
390
0
  6
Continuous
 62
   134
100
AcDbPolyline
 90
        2
 70
     0
 10
59.52002
 20
52.76355
 10
59.52002
 20
52.453491
  0
LWPOLYLINE
  5
257
100
AcDbEntity
  8
LAYER01
370
    35
390
0
  6
Continuous
 62
   134
100
AcDbPolyline
 90
        2
 70
     0
 10
59.52002
 20
52.453491
 10
60.0
 20
52.103516
  0
LWPOLYLINE
  5
258
100
AcDbEntity
  8
LAYER01
370
    35
390
0
  6
Continuous
 62
   134
100
AcDbPolyline
 90
        2
 70
     0
 10
60.0
 20
52.103516
 10
60.0
 20
50.00354
  0
LWPOLYLINE
  5
259
100
AcDbEntity
  8
LAYER01
370
    35
390
0
  6
Continuous
 62
   134
100
AcDbPolyline
 90
        2
 70
     0
 10
60.0
 20
50.00354
 10
59.699951
 20
49.703491
  0
LWPOLYLINE
  5
25A
100
AcDbEntity
  8
LAYER01
370
    35
390
0
  6
Continuous
 62
   134
100
AcDbPolyline
 90
        2
 70
     0
 10
59.699951
 20
49.703491
 10
57.699951
 20
49.703491
  0
LWPOLYLINE
  5
25B
100
AcDbEntity
  8
LAYER01
370
    35
390
0
  6
Continuous
 62
   134
100
AcDbPolyline
 90
        2
 70
     0
 10
57.699951
 20
49.703491
 10
56.699951
 20
50.363525
  0
LWPOLYLINE
  5
25C
100
AcDbEntity
  8
LAYER01
370
    35
390
0
  6
Continuous
 62
   134
100
AcDbPolyline
 90
        2
 70
     0
 10
56.699951
 20
50.363525
 10
56.5
 20
50.703491
  0
LWPOLYLINE
  5
25D
100
AcDbEntity
  8
LAYER01
370
    35
390
0
  6
Continuous
 62
   134
100
AcDbPolyline
 90
        2
 70
     0
 10
56.5
 20
50.703491
 10
56.699951
 20
51.053589
  0
LWPOLYLINE
  5
25E
100
AcDbEntity
  8
LAYER01
370
    35
390
0
  6
Continuous
 62
   134
100
AcDbPolyline
 90
        2
 70
     0
 10
56.699951
 20
51.053589
 10
57.5
 20
51.363525
  0
LWPOLYLINE
  5
25F
100
AcDbEntity
  8
LAYER01
370
    35
390
0
  6
Continuous
 62
   134
100
AcDbPolyline
 90
        2
 70
     0
 10
57.5
 20
51.363525
 10
57.699951
 20
51.703491
  0
LWPOLYLINE
  5
260
100
AcDbEntity
  8
LAYER01
370
    35
390
0
  6
Continuous
 62
   134
100
AcDbPolyline
 90
        2
 70
     0
 10
57.699951
 20
51.703491
 10
57.5
 20
52.053589
  0
LWPOLYLINE
  5
261
100
AcDbEntity
  8
LAYER01
370
    35
390
0
  6
Continuous
 62
   134
100
AcDbPolyline
 90
        2
 70
     0
 10
57.5
 20
52.053589
 10
56.699951
 20
52.363525
  0
LWPOLYLINE
  5
262
100
AcDbEntity
  8
LAYER01
370
    35
390
0
  6
Continuous
 62
   134
100
AcDbPolyline
 90
        2
 70
     0
 10
56.699951
 20
52.363525
 10
56.5
 20
52.703491
  0
LWPOLYLINE
  5
263
100
AcDbEntity
  8
LAYER01
370
    35
390
0
  6
Continuous
 62
   134
100
AcDbPolyline
 90
        2
 70
     0
 10
56.5
 20
52.703491
 10
56.699951
 20
53.053589
  0
LWPOLYLINE
  5
264
100
AcDbEntity
  8
LAYER01
370
    35
390
0
  6
Continuous
 62
   134
100
AcDbPolyline
 90
        2
 70
     0
 10
56.699951
 20
53.053589
 10
57.5
 20
53.363525
  0
LWPOLYLINE
  5
265
100
AcDbEntity
  8
LAYER01
370
    35
390
0
  6
Continuous
 62
   134
100
AcDbPolyline
 90
        2
 70
     0
 10
57.5
 20
53.363525
 10
57.699951
 20
53.703491
  0
LWPOLYLINE
  5
266
100
AcDbEntity
  8
LAYER01
370
    35
390
0
  6
Continuous
 62
   134
100
AcDbPolyline
 90
        2
 70
     0
 10
57.699951
 20
53.703491
 10
57.5
 20
54.053589
  0
LWPOLYLINE
  5
267
100
AcDbEntity
  8
LAYER01
370
    35
390
0
  6
Continuous
 62
   134
100
AcDbPolyline
 90
        2
 70
     0
 10
57.5
 20
54.053589
 10
56.699951
 20
54.363525
  0
LWPOLYLINE
  5
268
100
AcDbEntity
  8
LAYER01
370
    35
390
0
  6
Continuous
 62
   134
100
AcDbPolyline
 90
        2
 70
     0
 10
56.699951
 20
54.363525
 10
56.5
 20
54.703491
  0
LWPOLYLINE
  5
269
100
AcDbEntity
  8
LAYER01
370
    35
390
0
  6
Continuous
 62
   134
100
AcDbPolyline
 90
        2
 70
     0
 10
56.5
 20
54.703491
 10
56.699951
 20
55.053589
  0
LWPOLYLINE
  5
26A
100
AcDbEntity
  8
LAYER01
370
    35
390
0
  6
Continuous
 62
   134
100
AcDbPolyline
 90
        2
 70
     0
 10
56.699951
 20
55.053589
 10
57.5
 20
55.363525
  0
LWPOLYLINE
  5
26B
100
AcDbEntity
  8
LAYER01
370
    35
390
0
  6
Continuous
 62
   134
100
AcDbPolyline
 90
        2
 70
     0
 10
57.5
 20
55.363525
 10
57.699951
 20
55.703491
  0
LWPOLYLINE
  5
26C
100
AcDbEntity
  8
LAYER01
370
    35
390
0
  6
Continuous
 62
   134
100
AcDbPolyline
 90
        2
 70
     0
 10
57.699951
 20
55.703491
 10
57.5
 20
56.053589
  0
LWPOLYLINE
  5
26D
100
AcDbEntity
  8
LAYER01
370
    35
390
0
  6
Continuous
 62
   134
100
AcDbPolyline
 90
        2
 70
     0
 10
57.5
 20
56.053589
 10
56.699951
 20
56.363525
  0
LWPOLYLINE
  5
26E
100
AcDbEntity
  8
LAYER01
370
    35
390
0
  6
Continuous
 62
   134
100
AcDbPolyline
 90
        2
 70
     0
 10
56.699951
 20
56.363525
 10
56.5
 20
56.693481
  0
LWPOLYLINE
  5
26F
100
AcDbEntity
  8
LAYER01
370
    35
390
0
  6
Continuous
 62
   134
100
AcDbPolyline
 90
        2
 70
     0
 10
56.5
 20
56.693481
 10
56.780029
 20
57.103516
  0
LWPOLYLINE
  5
270
100
AcDbEntity
  8
LAYER01
370
    35
390
0
  6
Continuous
 62
   134
100
AcDbPolyline
 90
        2
 70
     0
 10
56.780029
 20
57.103516
 10
57.600098
 20
57.103516
  0
LWPOLYLINE
  5
271
100
AcDbEntity
  8
LAYER01
370
    35
390
0
  6
Continuous
 62
   134
100
AcDbPolyline
 90
        2
 70
     0
 10
57.600098
 20
57.103516
 10
58.100098
 20
57.623535
  0
LWPOLYLINE
  5
272
100
AcDbEntity
  8
LAYER01
370
    35
390
0
  6
Continuous
 62
   134
100
AcDbPolyline
 90
        2
 70
     0
 10
58.100098
 20
57.623535
 10
56.97998
 20
58.863525
  0
LWPOLYLINE
  5
273
100
AcDbEntity
  8
LAYER01
370
    35
390
0
  6
Continuous
 62
   134
100
AcDbPolyline
 90
        2
 70
     0
 10
56.97998
 20
58.863525
 10
56.5
 20
60.113525
  0
LWPOLYLINE
  5
274
100
AcDbEntity
  8
LAYER01
370
    35
390
0
  6
Continuous
 62
   134
100
AcDbPolyline
 90
        2
 70
     0
 10
56.5
 20
60.113525
 10
56.5
 20
62.74353
  0
LWPOLYLINE
  5
275
100
AcDbEntity
  8
LAYER01
370
    35
390
0
  6
Continuous
 62
   134
100
AcDbPolyline
 90
        2
 70
     0
 10
56.5
 20
62.74353
 10
56.929932
 20
63.173584
  0
LWPOLYLINE
  5
276
100
AcDbEntity
  8
LAYER01
370
    35
390
0
  6
Continuous
 62
   134
100
AcDbPolyline
 90
        2
 70
     0
 10
56.929932
 20
63.173584
 10
57.150146
 20
63.113525
  0
LWPOLYLINE
  5
277
100
AcDbEntity
  8
LAYER01
370
    35
390
0
  6
Continuous
 62
   134
100
AcDbPolyline
 90
        2
 70
     0
 10
57.150146
 20
63.113525
 10
57.350098
 20
62.74353
  0
LWPOLYLINE
  5
278
100
AcDbEntity
  8
LAYER01
370
    35
390
0
  6
Continuous
 62
   134
100
AcDbPolyline
 90
        2
 70
     0
 10
57.350098
 20
62.74353
 10
57.449951
 20
61.843506
  0
LWPOLYLINE
  5
279
100
AcDbEntity
  8
LAYER01
370
    35
390
0
  6
Continuous
 62
   134
100
AcDbPolyline
 90
        2
 70
     0
 10
57.449951
 20
61.843506
 10
57.580078
 20
61.01355
  0
LWPOLYLINE
  5
27A
100
AcDbEntity
  8
LAYER01
370
    35
390
0
  6
Continuous
 62
   134
100
AcDbPolyline
 90
        2
 70
     0
 10
57.580078
 20
61.01355
 10
58.949951
 20
59.793579
  0
LWPOLYLINE
  5
27B
100
AcDbEntity
  8
LAYER01
370
    35
390
0
  6
Continuous
 62
   134
100
AcDbPolyline
 90
        2
 70
     0
 10
58.949951
 20
59.793579
 10
59.449951
 20
59.693481
  0
LWPOLYLINE
  5
27C
100
AcDbEntity
  8
LAYER01
370
    35
390
0
  6
Continuous
 62
   134
100
AcDbPolyline
 90
        2
 70
     0
 10
25.449951
 20
51.704956
 10
25.199951
 20
51.435059
  0
LWPOLYLINE
  5
27D
100
AcDbEntity
  8
LAYER01
370
    35
390
0
  6
Continuous
 62
   134
100
AcDbPolyline
 90
        2
 70
     0
 10
25.199951
 20
51.435059
 10
25.300049
 20
51.165039
  0
LWPOLYLINE
  5
27E
100
AcDbEntity
  8
LAYER01
370
    35
390
0
  6
Continuous
 62
   134
100
AcDbPolyline
 90
        2
 70
     0
 10
25.300049
 20
51.165039
 10
25.780029
 20
50.015015
  0
LWPOLYLINE
  5
27F
100
AcDbEntity
  8
LAYER01
370
    35
390
0
  6
Continuous
 62
   134
100
AcDbPolyline
 90
        2
 70
     0
 10
25.780029
 20
50.015015
 10
26.310059
 20
48.60498
  0
LWPOLYLINE
  5
280
100
AcDbEntity
  8
LAYER01
370
    35
390
0
  6
Continuous
 62
   134
100
AcDbPolyline
 90
        2
 70
     0
 10
26.310059
 20
48.60498
 10
26.790039
 20
47.175049
  0
LWPOLYLINE
  5
281
100
AcDbEntity
  8
LAYER01
370
    35
390
0
  6
Continuous
 62
   134
100
AcDbPolyline
 90
        2
 70
     0
 10
26.790039
 20
47.175049
 10
27.219971
 20
45.724976
  0
LWPOLYLINE
  5
282
100
AcDbEntity
  8
LAYER01
370
    35
390
0
  6
Continuous
 62
   134
100
AcDbPolyline
 90
        2
 70
     0
 10
27.219971
 20
45.724976
 10
27.540039
 20
44.435059
  0
LWPOLYLINE
  5
283
100
AcDbEntity
  8
LAYER01
370
    35
390
0
  6
Continuous
 62
   134
100
AcDbPolyline
 90
        2
 70
     0
 10
27.540039
 20
44.435059
 10
28.189941
 20
44.194946
  0
LWPOLYLINE
  5
284
100
AcDbEntity
  8
LAYER01
370
    35
390
0
  6
Continuous
 62
   134
100
AcDbPolyline
 90
        2
 70
     0
 10
28.189941
 20
44.194946
 10
28.420898
 20
44.355713
  0
LWPOLYLINE
  5
285
100
AcDbEntity
  8
LAYER01
370
    35
390
0
  6
Continuous
 62
   134
100
AcDbPolyline
 90
        2
 70
     0
 10
28.420898
 20
44.355713
 10
28.489258
 20
44.459229
  0
LWPOLYLINE
  5
286
100
AcDbEntity
  8
LAYER01
370
    35
390
0
  6
Continuous
 62
   134
100
AcDbPolyline
 90
        2
 70
     0
 10
28.489258
 20
44.459229
 10
28.679932
 20
44.64502
  0
LWPOLYLINE
  5
287
100
AcDbEntity
  8
LAYER01
370
    35
390
0
  6
Continuous
 62
   134
100
AcDbPolyline
 90
        2
 70
     0
 10
28.679932
 20
44.64502
 10
29.110107
 20
45.074951
  0
LWPOLYLINE
  5
288
100
AcDbEntity
  8
LAYER01
370
    35
390
0
  6
Continuous
 62
   134
100
AcDbPolyline
 90
        2
 70
     0
 10
29.110107
 20
45.074951
 10
29.48999
 20
45.555054
  0
LWPOLYLINE
  5
289
100
AcDbEntity
  8
LAYER01
370
    35
390
0
  6
Continuous
 62
   134
100
AcDbPolyline
 90
        2
 70
     0
 10
29.48999
 20
45.555054
 10
29.810059
 20
46.074951
  0
LWPOLYLINE
  5
28A
100
AcDbEntity
  8
LAYER01
370
    35
390
0
  6
Continuous
 62
   134
100
AcDbPolyline
 90
        2
 70
     0
 10
29.810059
 20
46.074951
 10
30.080078
 20
46.625
  0
LWPOLYLINE
  5
28B
100
AcDbEntity
  8
LAYER01
370
    35
390
0
  6
Continuous
 62
   134
100
AcDbPolyline
 90
        2
 70
     0
 10
30.080078
 20
46.625
 10
30.280029
 20
47.194946
  0
LWPOLYLINE
  5
28C
100
AcDbEntity
  8
LAYER01
370
    35
390
0
  6
Continuous
 62
   134
100
AcDbPolyline
 90
        2
 70
     0
 10
30.280029
 20
47.194946
 10
30.429932
 20
47.795044
  0
LWPOLYLINE
  5
28D
100
AcDbEntity
  8
LAYER01
370
    35
390
0
  6
Continuous
 62
   134
100
AcDbPolyline
 90
        2
 70
     0
 10
30.429932
 20
47.795044
 10
30.51001
 20
48.39502
  0
LWPOLYLINE
  5
28E
100
AcDbEntity
  8
LAYER01
370
    35
390
0
  6
Continuous
 62
   134
100
AcDbPolyline
 90
        2
 70
     0
 10
30.51001
 20
48.39502
 10
30.540039
 20
49.005005
  0
LWPOLYLINE
  5
28F
100
AcDbEntity
  8
LAYER01
370
    35
390
0
  6
Continuous
 62
   134
100
AcDbPolyline
 90
        2
 70
     0
 10
30.540039
 20
49.005005
 10
30.400146
 20
49.545044
  0
LWPOLYLINE
  5
290
100
AcDbEntity
  8
LAYER01
370
    35
390
0
  6
Continuous
 62
   134
100
AcDbPolyline
 90
        2
 70
     0
 10
30.400146
 20
49.545044
 10
30.140137
 20
49.665039
  0
LWPOLYLINE
  5
291
100
AcDbEntity
  8
LAYER01
370
    35
390
0
  6
Continuous
 62
   134
100
AcDbPolyline
 90
        2
 70
     0
 10
30.140137
 20
49.665039
 10
29.73999
 20
49.515015
  0
LWPOLYLINE
  5
292
100
AcDbEntity
  8
LAYER01
370
    35
390
0
  6
Continuous
 62
   134
100
AcDbPolyline
 90
        2
 70
     0
 10
29.73999
 20
49.515015
 10
29.630127
 20
49.234985
  0
LWPOLYLINE
  5
293
100
AcDbEntity
  8
LAYER01
370
    35
390
0
  6
Continuous
 62
   134
100
AcDbPolyline
 90
        2
 70
     0
 10
29.630127
 20
49.234985
 10
29.630127
 20
49.10498
  0
LWPOLYLINE
  5
294
100
AcDbEntity
  8
LAYER01
370
    35
390
0
  6
Continuous
 62
   134
100
AcDbPolyline
 90
        2
 70
     0
 10
29.630127
 20
49.10498
 10
29.620117
 20
48.935059
  0
LWPOLYLINE
  5
295
100
AcDbEntity
  8
LAYER01
370
    35
390
0
  6
Continuous
 62
   134
100
AcDbPolyline
 90
        2
 70
     0
 10
29.620117
 20
48.935059
 10
29.620117
 20
48.765015
  0
LWPOLYLINE
  5
296
100
AcDbEntity
  8
LAYER01
370
    35
390
0
  6
Continuous
 62
   134
100
AcDbPolyline
 90
        2
 70
     0
 10
29.620117
 20
48.765015
 10
29.439941
 20
48.125
  0
LWPOLYLINE
  5
297
100
AcDbEntity
  8
LAYER01
370
    35
390
0
  6
Continuous
 62
   134
100
AcDbPolyline
 90
        2
 70
     0
 10
29.439941
 20
48.125
 10
29.189941
 20
47.625
  0
LWPOLYLINE
  5
298
100
AcDbEntity
  8
LAYER01
370
    35
390
0
  6
Continuous
 62
   134
100
AcDbPolyline
 90
        2
 70
     0
 10
29.189941
 20
47.625
 10
28.880127
 20
47.175049
  0
LWPOLYLINE
  5
299
100
AcDbEntity
  8
LAYER01
370
    35
390
0
  6
Continuous
 62
   134
100
AcDbPolyline
 90
        2
 70
     0
 10
28.880127
 20
47.175049
 10
28.51001
 20
46.755005
  0
LWPOLYLINE
  5
29A
100
AcDbEntity
  8
LAYER01
370
    35
390
0
  6
Continuous
 62
   134
100
AcDbPolyline
 90
        2
 70
     0
 10
28.51001
 20
46.755005
 10
28.460205
 20
46.61145
  0
POINT
  5
29B
100
AcDbEntity
  8
LAYER01
390
0
  6
Continuous
 62
   134
100
AcDbPoint
 10
28.460205
 20
46.61145
 30
0.0
  0
LWPOLYLINE
  5
29C
100
AcDbEntity
  8
LAYER01
370
    35
390
0
  6
Continuous
 62
   134
100
AcDbPolyline
 90
        2
 70
     0
 10
28.37207
 20
46.61145
 10
28.300049
 20
46.86499
  0
LWPOLYLINE
  5
29D
100
AcDbEntity
  8
LAYER01
370
    35
390
0
  6
Continuous
 62
   134
100
AcDbPolyline
 90
        2
 70
     0
 10
28.300049
 20
46.86499
 10
28.300049
 20
49.035034
  0
LWPOLYLINE
  5
29E
100
AcDbEntity
  8
LAYER01
370
    35
390
0
  6
Continuous
 62
   134
100
AcDbPolyline
 90
        2
 70
     0
 10
28.300049
 20
49.035034
 10
28.627441
 20
49.596558
  0
LWPOLYLINE
  5
29F
100
AcDbEntity
  8
LAYER01
370
    35
390
0
  6
Continuous
 62
   134
100
AcDbPolyline
 90
        2
 70
     0
 10
28.627441
 20
49.596558
 10
28.77002
 20
49.875
  0
LWPOLYLINE
  5
2A0
100
AcDbEntity
  8
LAYER01
370
    35
390
0
  6
Continuous
 62
   134
100
AcDbPolyline
 90
        2
 70
     0
 10
28.77002
 20
49.875
 10
30.150146
 20
51.295044
  0
LWPOLYLINE
  5
2A1
100
AcDbEntity
  8
LAYER01
370
    35
390
0
  6
Continuous
 62
   134
100
AcDbPolyline
 90
        2
 70
     0
 10
30.150146
 20
51.295044
 10
30.540039
 20
53.084961
  0
LWPOLYLINE
  5
2A2
100
AcDbEntity
  8
LAYER01
370
    35
390
0
  6
Continuous
 62
   134
100
AcDbPolyline
 90
        2
 70
     0
 10
30.540039
 20
53.084961
 10
30.439941
 20
53.984985
  0
LWPOLYLINE
  5
2A3
100
AcDbEntity
  8
LAYER01
370
    35
390
0
  6
Continuous
 62
   134
100
AcDbPolyline
 90
        2
 70
     0
 10
30.439941
 20
53.984985
 10
30.189941
 20
54.10498
  0
LWPOLYLINE
  5
2A4
100
AcDbEntity
  8
LAYER01
370
    35
390
0
  6
Continuous
 62
   134
100
AcDbPolyline
 90
        2
 70
     0
 10
30.189941
 20
54.10498
 10
29.790039
 20
53.984985
  0
LWPOLYLINE
  5
2A5
100
AcDbEntity
  8
LAYER01
370
    35
390
0
  6
Continuous
 62
   134
100
AcDbPolyline
 90
        2
 70
     0
 10
29.790039
 20
53.984985
 10
29.5
 20
52.805054
  0
LWPOLYLINE
  5
2A6
100
AcDbEntity
  8
LAYER01
370
    35
390
0
  6
Continuous
 62
   134
100
AcDbPolyline
 90
        2
 70
     0
 10
29.5
 20
52.805054
 10
28.780029
 20
51.805054
  0
LWPOLYLINE
  5
2A7
100
AcDbEntity
  8
LAYER01
370
    35
390
0
  6
Continuous
 62
   134
100
AcDbPolyline
 90
        2
 70
     0
 10
28.780029
 20
51.805054
 10
28.580078
 20
51.494995
  0
LWPOLYLINE
  5
2A8
100
AcDbEntity
  8
LAYER01
370
    35
390
0
  6
Continuous
 62
   134
100
AcDbPolyline
 90
        2
 70
     0
 10
28.580078
 20
51.494995
 10
28.400146
 20
51.564941
  0
LWPOLYLINE
  5
2A9
100
AcDbEntity
  8
LAYER01
370
    35
390
0
  6
Continuous
 62
   134
100
AcDbPolyline
 90
        2
 70
     0
 10
28.400146
 20
51.564941
 10
28.300049
 20
51.795044
  0
LWPOLYLINE
  5
2AA
100
AcDbEntity
  8
LAYER01
370
    35
390
0
  6
Continuous
 62
   134
100
AcDbPolyline
 90
        2
 70
     0
 10
28.300049
 20
51.795044
 10
28.300049
 20
54.694946
  0
LWPOLYLINE
  5
2AB
100
AcDbEntity
  8
LAYER01
370
    35
390
0
  6
Continuous
 62
   134
100
AcDbPolyline
 90
        2
 70
     0
 10
28.300049
 20
54.694946
 10
28.890137
 20
55.314941
  0
LWPOLYLINE
  5
2AC
100
AcDbEntity
  8
LAYER01
370
    35
390
0
  6
Continuous
 62
   134
100
AcDbPolyline
 90
        2
 70
     0
 10
28.890137
 20
55.314941
 10
29.25
 20
55.625
  0
LWPOLYLINE
  5
2AD
100
AcDbEntity
  8
LAYER01
370
    35
390
0
  6
Continuous
 62
   134
100
AcDbPolyline
 90
        2
 70
     0
 10
29.25
 20
55.625
 10
30.340088
 20
57.175049
  0
LWPOLYLINE
  5
2AE
100
AcDbEntity
  8
LAYER01
370
    35
390
0
  6
Continuous
 62
   134
100
AcDbPolyline
 90
        2
 70
     0
 10
30.340088
 20
57.175049
 10
30.540039
 20
58.795044
  0
LWPOLYLINE
  5
2AF
100
AcDbEntity
  8
LAYER01
370
    35
390
0
  6
Continuous
 62
   134
100
AcDbPolyline
 90
        2
 70
     0
 10
30.540039
 20
58.795044
 10
30.400146
 20
59.665039
  0
LWPOLYLINE
  5
2B0
100
AcDbEntity
  8
LAYER01
370
    35
390
0
  6
Continuous
 62
   134
100
AcDbPolyline
 90
        2
 70
     0
 10
30.400146
 20
59.665039
 10
30.040039
 20
59.785034
  0
LWPOLYLINE
  5
2B1
100
AcDbEntity
  8
LAYER01
370
    35
390
0
  6
Continuous
 62
   134
100
AcDbPolyline
 90
        2
 70
     0
 10
30.040039
 20
59.785034
 10
29.709961
 20
59.61499
  0
LWPOLYLINE
  5
2B2
100
AcDbEntity
  8
LAYER01
370
    35
390
0
  6
Continuous
 62
   134
100
AcDbPolyline
 90
        2
 70
     0
 10
29.709961
 20
59.61499
 10
29.570068
 20
59.005005
  0
LWPOLYLINE
  5
2B3
100
AcDbEntity
  8
LAYER01
370
    35
390
0
  6
Continuous
 62
   134
100
AcDbPolyline
 90
        2
 70
     0
 10
29.570068
 20
59.005005
 10
28.72998
 20
57.334961
  0
LWPOLYLINE
  5
2B4
100
AcDbEntity
  8
LAYER01
370
    35
390
0
  6
Continuous
 62
   134
100
AcDbPolyline
 90
        2
 70
     0
 10
28.72998
 20
57.334961
 10
28.44751
 20
57.187256
  0
LWPOLYLINE
  5
2B5
100
AcDbEntity
  8
LAYER01
370
    35
390
0
  6
Continuous
 62
   134
100
AcDbPolyline
 90
        2
 70
     0
 10
28.44751
 20
57.187256
 10
27.72998
 20
56.844971
  0
LWPOLYLINE
  5
2B6
100
AcDbEntity
  8
LAYER01
370
    35
390
0
  6
Continuous
 62
   134
100
AcDbPolyline
 90
        2
 70
     0
 10
27.72998
 20
56.844971
 10
25.360107
 20
56.36499
  0
LWPOLYLINE
  5
2B7
100
AcDbEntity
  8
LAYER01
370
    35
390
0
  6
Continuous
 62
   134
100
AcDbPolyline
 90
        2
 70
     0
 10
25.360107
 20
56.36499
 10
24.890137
 20
56.224976
  0
LWPOLYLINE
  5
2B8
100
AcDbEntity
  8
LAYER01
370
    35
390
0
  6
Continuous
 62
   134
100
AcDbPolyline
 90
        2
 70
     0
 10
24.890137
 20
56.224976
 10
24.800049
 20
56.005005
  0
LWPOLYLINE
  5
2B9
100
AcDbEntity
  8
LAYER01
370
    35
390
0
  6
Continuous
 62
   134
100
AcDbPolyline
 90
        2
 70
     0
 10
24.800049
 20
56.005005
 10
25.199951
 20
54.515015
  0
LWPOLYLINE
  5
2BA
100
AcDbEntity
  8
LAYER01
370
    35
390
0
  6
Continuous
 62
   134
100
AcDbPolyline
 90
        2
 70
     0
 10
25.199951
 20
54.515015
 10
25.48999
 20
54.295044
  0
LWPOLYLINE
  5
2BB
100
AcDbEntity
  8
LAYER01
370
    35
390
0
  6
Continuous
 62
   134
100
AcDbPolyline
 90
        2
 70
     0
 10
25.48999
 20
54.295044
 10
26.719971
 20
54.295044
  0
LWPOLYLINE
  5
2BC
100
AcDbEntity
  8
LAYER01
370
    35
390
0
  6
Continuous
 62
   134
100
AcDbPolyline
 90
        2
 70
     0
 10
26.719971
 20
54.295044
 10
27.0
 20
53.994995
  0
LWPOLYLINE
  5
2BD
100
AcDbEntity
  8
LAYER01
370
    35
390
0
  6
Continuous
 62
   134
100
AcDbPolyline
 90
        2
 70
     0
 10
27.0
 20
53.994995
 10
27.0
 20
52.005005
  0
LWPOLYLINE
  5
2BE
100
AcDbEntity
  8
LAYER01
370
    35
390
0
  6
Continuous
 62
   134
100
AcDbPolyline
 90
        2
 70
     0
 10
27.0
 20
52.005005
 10
26.699951
 20
51.704956
  0
LWPOLYLINE
  5
2BF
100
AcDbEntity
  8
LAYER01
370
    35
390
0
  6
Continuous
 62
   134
100
AcDbPolyline
 90
        2
 70
     0
 10
26.699951
 20
51.704956
 10
25.449951
 20
51.704956
  0
LWPOLYLINE
  5
2C0
100
AcDbEntity
  8
LAYER01
370
    35
390
0
  6
Continuous
 62
   134
100
AcDbPolyline
 90
        2
 70
     0
 10
25.449951
 20
51.704956
 10
25.199951
 20
51.435059
  0
LWPOLYLINE
  5
2C1
100
AcDbEntity
  8
LAYER01
370
    35
390
0
  6
Continuous
 62
   134
100
AcDbPolyline
 90
        2
 70
     0
 10
25.199951
 20
51.435059
 10
25.300049
 20
51.165039
  0
LWPOLYLINE
  5
2C2
100
AcDbEntity
  8
LAYER01
370
    35
390
0
  6
Continuous
 62
   134
100
AcDbPolyline
 90
        2
 70
     0
 10
25.300049
 20
51.165039
 10
25.780029
 20
50.015015
  0
LWPOLYLINE
  5
2C3
100
AcDbEntity
  8
LAYER01
370
    35
390
0
  6
Continuous
 62
   134
100
AcDbPolyline
 90
        2
 70
     0
 10
25.780029
 20
50.015015
 10
26.310059
 20
48.60498
  0
LWPOLYLINE
  5
2C4
100
AcDbEntity
  8
LAYER01
370
    35
390
0
  6
Continuous
 62
   134
100
AcDbPolyline
 90
        2
 70
     0
 10
26.310059
 20
48.60498
 10
26.790039
 20
47.175049
  0
LWPOLYLINE
  5
2C5
100
AcDbEntity
  8
LAYER01
370
    35
390
0
  6
Continuous
 62
   134
100
AcDbPolyline
 90
        2
 70
     0
 10
0.0
 20
39.0
 10
0.0
 20
34.5
  0
LWPOLYLINE
  5
2C6
100
AcDbEntity
  8
LAYER01
370
    35
390
0
  6
Continuous
 62
   134
100
AcDbPolyline
 90
        2
 70
     0
 10
0.0
 20
34.5
 10
1.0
 20
34.5
  0
LWPOLYLINE
  5
2C7
100
AcDbEntity
  8
LAYER01
370
    35
390
0
  6
Continuous
 62
   134
100
AcDbPolyline
 90
        2
 70
     0
 10
1.0
 20
34.5
 10
1.0
 20
34.619995
  0
LWPOLYLINE
  5
2C8
100
AcDbEntity
  8
LAYER01
370
    35
390
0
  6
Continuous
 62
   134
100
AcDbPolyline
 90
        2
 70
     0
 10
1.0
 20
34.619995
 10
1.370117
 20
35.099976
  0
LWPOLYLINE
  5
2C9
100
AcDbEntity
  8
LAYER01
370
    35
390
0
  6
Continuous
 62
   134
100
AcDbPolyline
 90
        2
 70
     0
 10
1.370117
 20
35.099976
 10
3.98999
 20
35.810059
  0
LWPOLYLINE
  5
2CA
100
AcDbEntity
  8
LAYER01
370
    35
390
0
  6
Continuous
 62
   134
100
AcDbPolyline
 90
        2
 70
     0
 10
3.98999
 20
35.810059
 10
4.98999
 20
35.51001
  0
LWPOLYLINE
  5
2CB
100
AcDbEntity
  8
LAYER01
370
    35
390
0
  6
Continuous
 62
   134
100
AcDbPolyline
 90
        2
 70
     0
 10
4.98999
 20
35.51001
 10
5.23999
 20
34.75
  0
LWPOLYLINE
  5
2CC
100
AcDbEntity
  8
LAYER01
370
    35
390
0
  6
Continuous
 62
   134
100
AcDbPolyline
 90
        2
 70
     0
 10
5.23999
 20
34.75
 10
5.0
 20
31.98999
  0
LWPOLYLINE
  5
2CD
100
AcDbEntity
  8
LAYER01
370
    35
390
0
  6
Continuous
 62
   134
100
AcDbPolyline
 90
        2
 70
     0
 10
5.0
 20
31.98999
 10
5.140137
 20
31.800049
  0
LWPOLYLINE
  5
2CE
100
AcDbEntity
  8
LAYER01
370
    35
390
0
  6
Continuous
 62
   134
100
AcDbPolyline
 90
        2
 70
     0
 10
5.140137
 20
31.800049
 10
6.030029
 20
31.800049
  0
LWPOLYLINE
  5
2CF
100
AcDbEntity
  8
LAYER01
370
    35
390
0
  6
Continuous
 62
   134
100
AcDbPolyline
 90
        2
 70
     0
 10
6.030029
 20
31.800049
 10
6.530029
 20
32.26001
  0
LWPOLYLINE
  5
2D0
100
AcDbEntity
  8
LAYER01
370
    35
390
0
  6
Continuous
 62
   134
100
AcDbPolyline
 90
        2
 70
     0
 10
6.530029
 20
32.26001
 10
6.630127
 20
33.51001
  0
LWPOLYLINE
  5
2D1
100
AcDbEntity
  8
LAYER01
370
    35
390
0
  6
Continuous
 62
   134
100
AcDbPolyline
 90
        2
 70
     0
 10
6.630127
 20
33.51001
 10
6.959961
 20
33.939941
  0
LWPOLYLINE
  5
2D2
100
AcDbEntity
  8
LAYER01
370
    35
390
0
  6
Continuous
 62
   134
100
AcDbPolyline
 90
        2
 70
     0
 10
6.959961
 20
33.939941
 10
7.47998
 20
33.819946
  0
LWPOLYLINE
  5
2D3
100
AcDbEntity
  8
LAYER01
370
    35
390
0
  6
Continuous
 62
   134
100
AcDbPolyline
 90
        2
 70
     0
 10
7.47998
 20
33.819946
 10
10.469971
 20
30.829956
  0
LWPOLYLINE
  5
2D4
100
AcDbEntity
  8
LAYER01
370
    35
390
0
  6
Continuous
 62
   134
100
AcDbPolyline
 90
        2
 70
     0
 10
10.469971
 20
30.829956
 10
10.51001
 20
30.609985
  0
LWPOLYLINE
  5
2D5
100
AcDbEntity
  8
LAYER01
370
    35
390
0
  6
Continuous
 62
   134
100
AcDbPolyline
 90
        2
 70
     0
 10
10.51001
 20
30.609985
 10
10.02002
 20
30.150024
  0
LWPOLYLINE
  5
2D6
100
AcDbEntity
  8
LAYER01
370
    35
390
0
  6
Continuous
 62
   134
100
AcDbPolyline
 90
        2
 70
     0
 10
10.02002
 20
30.150024
 10
10.130127
 20
30.0
  0
LWPOLYLINE
  5
2D7
100
AcDbEntity
  8
LAYER01
370
    35
390
0
  6
Continuous
 62
   134
100
AcDbPolyline
 90
        2
 70
     0
 10
10.130127
 20
30.0
 10
13.400146
 20
30.0
  0
LWPOLYLINE
  5
2D8
100
AcDbEntity
  8
LAYER01
370
    35
390
0
  6
Continuous
 62
   134
100
AcDbPolyline
 90
        2
 70
     0
 10
13.400146
 20
30.0
 10
14.179932
 20
30.400024
  0
LWPOLYLINE
  5
2D9
100
AcDbEntity
  8
LAYER01
370
    35
390
0
  6
Continuous
 62
   134
100
AcDbPolyline
 90
        2
 70
     0
 10
14.179932
 20
30.400024
 10
15.22998
 20
30.400024
  0
LWPOLYLINE
  5
2DA
100
AcDbEntity
  8
LAYER01
370
    35
390
0
  6
Continuous
 62
   134
100
AcDbPolyline
 90
        2
 70
     0
 10
15.22998
 20
30.400024
 10
15.419922
 20
30.47998
  0
LWPOLYLINE
  5
2DB
100
AcDbEntity
  8
LAYER01
370
    35
390
0
  6
Continuous
 62
   134
100
AcDbPolyline
 90
        2
 70
     0
 10
15.419922
 20
30.47998
 10
15.5
 20
30.650024
  0
LWPOLYLINE
  5
2DC
100
AcDbEntity
  8
LAYER01
370
    35
390
0
  6
Continuous
 62
   134
100
AcDbPolyline
 90
        2
 70
     0
 10
15.5
 20
30.650024
 10
15.419922
 20
30.819946
  0
LWPOLYLINE
  5
2DD
100
AcDbEntity
  8
LAYER01
370
    35
390
0
  6
Continuous
 62
   134
100
AcDbPolyline
 90
        2
 70
     0
 10
15.419922
 20
30.819946
 10
15.22998
 20
30.900024
  0
LWPOLYLINE
  5
2DE
100
AcDbEntity
  8
LAYER01
370
    35
390
0
  6
Continuous
 62
   134
100
AcDbPolyline
 90
        2
 70
     0
 10
15.22998
 20
30.900024
 10
13.27002
 20
30.900024
  0
LWPOLYLINE
  5
2DF
100
AcDbEntity
  8
LAYER01
370
    35
390
0
  6
Continuous
 62
   134
100
AcDbPolyline
 90
        2
 70
     0
 10
13.27002
 20
30.900024
 10
12.780029
 20
30.939941
  0
LWPOLYLINE
  5
2E0
100
AcDbEntity
  8
LAYER01
370
    35
390
0
  6
Continuous
 62
   134
100
AcDbPolyline
 90
        2
 70
     0
 10
12.780029
 20
30.939941
 10
12.290039
 20
31.060059
  0
LWPOLYLINE
  5
2E1
100
AcDbEntity
  8
LAYER01
370
    35
390
0
  6
Continuous
 62
   134
100
AcDbPolyline
 90
        2
 70
     0
 10
12.290039
 20
31.060059
 10
11.880127
 20
31.310059
  0
LWPOLYLINE
  5
2E2
100
AcDbEntity
  8
LAYER01
370
    35
390
0
  6
Continuous
 62
   134
100
AcDbPolyline
 90
        2
 70
     0
 10
11.880127
 20
31.310059
 10
11.48999
 20
31.650024
  0
LWPOLYLINE
  5
2E3
100
AcDbEntity
  8
LAYER01
370
    35
390
0
  6
Continuous
 62
   134
100
AcDbPolyline
 90
        2
 70
     0
 10
11.48999
 20
31.650024
 10
6.02002
 20
37.119995
  0
LWPOLYLINE
  5
2E4
100
AcDbEntity
  8
LAYER01
370
    35
390
0
  6
Continuous
 62
   134
100
AcDbPolyline
 90
        2
 70
     0
 10
6.02002
 20
37.119995
 10
4.570068
 20
37.51001
  0
LWPOLYLINE
  5
2E5
100
AcDbEntity
  8
LAYER01
370
    35
390
0
  6
Continuous
 62
   134
100
AcDbPolyline
 90
        2
 70
     0
 10
4.570068
 20
37.51001
 10
2.630127
 20
36.98999
  0
LWPOLYLINE
  5
2E6
100
AcDbEntity
  8
LAYER01
370
    35
390
0
  6
Continuous
 62
   134
100
AcDbPolyline
 90
        2
 70
     0
 10
2.630127
 20
36.98999
 10
2.130127
 20
37.140015
  0
LWPOLYLINE
  5
2E7
100
AcDbEntity
  8
LAYER01
370
    35
390
0
  6
Continuous
 62
   134
100
AcDbPolyline
 90
        2
 70
     0
 10
2.130127
 20
37.140015
 10
2.0
 20
37.469971
  0
LWPOLYLINE
  5
2E8
100
AcDbEntity
  8
LAYER01
370
    35
390
0
  6
Continuous
 62
   134
100
AcDbPolyline
 90
        2
 70
     0
 10
2.0
 20
37.469971
 10
2.0
 20
41.0
  0
LWPOLYLINE
  5
2E9
100
AcDbEntity
  8
LAYER01
370
    35
390
0
  6
Continuous
 62
   134
100
AcDbPolyline
 90
        2
 70
     0
 10
2.0
 20
41.0
 10
2.5
 20
41.5
  0
LWPOLYLINE
  5
2EA
100
AcDbEntity
  8
LAYER01
370
    35
390
0
  6
Continuous
 62
   134
100
AcDbPolyline
 90
        2
 70
     0
 10
2.5
 20
41.5
 10
4.900146
 20
41.5
  0
LWPOLYLINE
  5
2EB
100
AcDbEntity
  8
LAYER01
370
    35
390
0
  6
Continuous
 62
   134
100
AcDbPolyline
 90
        2
 70
     0
 10
4.900146
 20
41.5
 10
4.900146
 20
40.900024
  0
LWPOLYLINE
  5
2EC
100
AcDbEntity
  8
LAYER01
370
    35
390
0
  6
Continuous
 62
   134
100
AcDbPolyline
 90
        2
 70
     0
 10
4.900146
 20
40.900024
 10
5.530029
 20
41.27002
  0
LWPOLYLINE
  5
2ED
100
AcDbEntity
  8
LAYER01
370
    35
390
0
  6
Continuous
 62
   134
100
AcDbPolyline
 90
        2
 70
     0
 10
5.530029
 20
41.27002
 10
6.0
 20
42.0
  0
LWPOLYLINE
  5
2EE
100
AcDbEntity
  8
LAYER01
370
    35
390
0
  6
Continuous
 62
   134
100
AcDbPolyline
 90
        2
 70
     0
 10
6.0
 20
42.0
 10
5.310059
 20
42.800049
  0
LWPOLYLINE
  5
2EF
100
AcDbEntity
  8
LAYER01
370
    35
390
0
  6
Continuous
 62
   134
100
AcDbPolyline
 90
        2
 70
     0
 10
5.310059
 20
42.800049
 10
2.47998
 20
42.800049
  0
LWPOLYLINE
  5
2F0
100
AcDbEntity
  8
LAYER01
370
    35
390
0
  6
Continuous
 62
   134
100
AcDbPolyline
 90
        2
 70
     0
 10
2.47998
 20
42.800049
 10
1.97998
 20
43.280029
  0
LWPOLYLINE
  5
2F1
100
AcDbEntity
  8
LAYER01
370
    35
390
0
  6
Continuous
 62
   134
100
AcDbPolyline
 90
        2
 70
     0
 10
1.97998
 20
43.280029
 10
1.570068
 20
52.939941
  0
LWPOLYLINE
  5
2F2
100
AcDbEntity
  8
LAYER01
370
    35
390
0
  6
Continuous
 62
   134
100
AcDbPolyline
 90
        2
 70
     0
 10
1.570068
 20
52.939941
 10
1.97998
 20
54.040039
  0
LWPOLYLINE
  5
2F3
100
AcDbEntity
  8
LAYER01
370
    35
390
0
  6
Continuous
 62
   134
100
AcDbPolyline
 90
        2
 70
     0
 10
1.97998
 20
54.040039
 10
3.060059
 20
54.5
  0
LWPOLYLINE
  5
2F4
100
AcDbEntity
  8
LAYER01
370
    35
390
0
  6
Continuous
 62
   134
100
AcDbPolyline
 90
        2
 70
     0
 10
3.060059
 20
54.5
 10
23.0
 20
54.5
  0
LWPOLYLINE
  5
2F5
100
AcDbEntity
  8
LAYER01
370
    35
390
0
  6
Continuous
 62
   134
100
AcDbPolyline
 90
        2
 70
     0
 10
23.0
 20
54.5
 10
23.5
 20
54.0
  0
LWPOLYLINE
  5
2F6
100
AcDbEntity
  8
LAYER01
370
    35
390
0
  6
Continuous
 62
   134
100
AcDbPolyline
 90
        2
 70
     0
 10
23.5
 20
54.0
 10
23.5
 20
52.430054
  0
LWPOLYLINE
  5
2F7
100
AcDbEntity
  8
LAYER01
370
    35
390
0
  6
Continuous
 62
   134
100
AcDbPolyline
 90
        2
 70
     0
 10
23.5
 20
52.430054
 10
23.530029
 20
52.319946
  0
LWPOLYLINE
  5
2F8
100
AcDbEntity
  8
LAYER01
370
    35
390
0
  6
Continuous
 62
   134
100
AcDbPolyline
 90
        2
 70
     0
 10
23.530029
 20
52.319946
 10
25.709961
 20
46.329956
  0
LWPOLYLINE
  5
2F9
100
AcDbEntity
  8
LAYER01
370
    35
390
0
  6
Continuous
 62
   134
100
AcDbPolyline
 90
        2
 70
     0
 10
25.709961
 20
46.329956
 10
26.5
 20
46.0
  0
LWPOLYLINE
  5
2FA
100
AcDbEntity
  8
LAYER01
370
    35
390
0
  6
Continuous
 62
   134
100
AcDbPolyline
 90
        2
 70
     0
 10
26.5
 20
46.0
 10
27.0
 20
46.47998
  0
LWPOLYLINE
  5
2FB
100
AcDbEntity
  8
LAYER01
370
    35
390
0
  6
Continuous
 62
   134
100
AcDbPolyline
 90
        2
 70
     0
 10
27.0
 20
46.47998
 10
26.969971
 20
46.670044
  0
LWPOLYLINE
  5
2FC
100
AcDbEntity
  8
LAYER01
370
    35
390
0
  6
Continuous
 62
   134
100
AcDbPolyline
 90
        2
 70
     0
 10
26.969971
 20
46.670044
 10
25.27002
 20
51.329956
  0
LWPOLYLINE
  5
2FD
100
AcDbEntity
  8
LAYER01
370
    35
390
0
  6
Continuous
 62
   134
100
AcDbPolyline
 90
        2
 70
     0
 10
25.27002
 20
51.329956
 10
25.23999
 20
51.52002
  0
LWPOLYLINE
  5
2FE
100
AcDbEntity
  8
LAYER01
370
    35
390
0
  6
Continuous
 62
   134
100
AcDbPolyline
 90
        2
 70
     0
 10
25.23999
 20
51.52002
 10
25.73999
 20
52.0
  0
LWPOLYLINE
  5
2FF
100
AcDbEntity
  8
LAYER01
370
    35
390
0
  6
Continuous
 62
   134
100
AcDbPolyline
 90
        2
 70
     0
 10
25.73999
 20
52.0
 10
26.5
 20
52.0
  0
LWPOLYLINE
  5
300
100
AcDbEntity
  8
LAYER01
370
    35
390
0
  6
Continuous
 62
   134
100
AcDbPolyline
 90
        2
 70
     0
 10
26.5
 20
52.0
 10
27.0
 20
52.5
  0
LWPOLYLINE
  5
301
100
AcDbEntity
  8
LAYER01
370
    35
390
0
  6
Continuous
 62
   134
100
AcDbPolyline
 90
        2
 70
     0
 10
27.0
 20
52.5
 10
27.0
 20
53.5
  0
LWPOLYLINE
  5
302
100
AcDbEntity
  8
LAYER01
370
    35
390
0
  6
Continuous
 62
   134
100
AcDbPolyline
 90
        2
 70
     0
 10
27.0
 20
53.5
 10
26.5
 20
54.0
  0
LWPOLYLINE
  5
303
100
AcDbEntity
  8
LAYER01
370
    35
390
0
  6
Continuous
 62
   134
100
AcDbPolyline
 90
        2
 70
     0
 10
26.5
 20
54.0
 10
25.5
 20
54.0
  0
LWPOLYLINE
  5
304
100
AcDbEntity
  8
LAYER01
370
    35
390
0
  6
Continuous
 62
   134
100
AcDbPolyline
 90
        2
 70
     0
 10
25.5
 20
54.0
 10
25.0
 20
54.5
  0
LWPOLYLINE
  5
305
100
AcDbEntity
  8
LAYER01
370
    35
390
0
  6
Continuous
 62
   134
100
AcDbPolyline
 90
        2
 70
     0
 10
25.0
 20
54.5
 10
25.0
 20
55.5
  0
LWPOLYLINE
  5
306
100
AcDbEntity
  8
LAYER01
370
    35
390
0
  6
Continuous
 62
   134
100
AcDbPolyline
 90
        2
 70
     0
 10
25.0
 20
55.5
 10
24.5
 20
56.0
  0
LWPOLYLINE
  5
307
100
AcDbEntity
  8
LAYER01
370
    35
390
0
  6
Continuous
 62
   134
100
AcDbPolyline
 90
        2
 70
     0
 10
24.5
 20
56.0
 10
0.5
 20
56.0
  0
LWPOLYLINE
  5
308
100
AcDbEntity
  8
LAYER01
370
    35
390
0
  6
Continuous
 62
   134
100
AcDbPolyline
 90
        2
 70
     0
 10
0.5
 20
56.0
 10
0.0
 20
55.5
  0
LWPOLYLINE
  5
309
100
AcDbEntity
  8
LAYER01
370
    35
390
0
  6
Continuous
 62
   134
100
AcDbPolyline
 90
        2
 70
     0
 10
0.0
 20
55.5
 10
0.0
 20
39.0
  0
LWPOLYLINE
  5
30A
100
AcDbEntity
  8
LAYER01
370
    35
390
0
  6
Continuous
 62
   134
100
AcDbPolyline
 90
        2
 70
     0
 10
56.5
 20
42.027344
 10
56.5
 20
96.736328
  0
LWPOLYLINE
  5
30B
100
AcDbEntity
  8
LAYER01
370
    35
390
0
  6
Continuous
 62
   134
100
AcDbPolyline
 90
        2
 70
     0
 10
50.5
 20
42.027344
 10
50.5
 20
96.736328
  0
LWPOLYLINE
  5
30C
100
AcDbEntity
  8
LAYER01
370
    35
390
0
  6
Continuous
 62
   134
100
AcDbPolyline
 90
        2
 70
     0
 10
30.5
 20
42.027344
 10
30.5
 20
96.736328
  0
LWPOLYLINE
  5
30D
100
AcDbEntity
  8
LAYER01
370
    35
390
0
  6
Continuous
 62
   134
100
AcDbPolyline
 90
        2
 70
     0
 10
34.5
 20
42.027344
 10
34.5
 20
96.736328
  0
LWPOLYLINE
  5
30E
100
AcDbEntity
  8
LAYER01
370
    35
390
0
  6
Continuous
 62
   134
100
AcDbPolyline
 90
        2
 70
     0
 10
65.0
 20
58.5
 10
65.0
 20
96.736328
  0
LWPOLYLINE
  5
30F
100
AcDbEntity
  8
LAYER01
370
    35
390
0
  6
Continuous
 62
   134
100
AcDbPolyline
 90
        2
 70
     0
 10
0.0
 20
55.5
 10
0.0
 20
96.736328
  0
ENDBLK
  5
310
100
AcDbEntity
  8
0
390
0
100
AcDbBlockEnd
  0
BLOCK
  5
317
100
AcDbEntity
  8
0
390
0
100
AcDbBlockBegin
  2
HATCH-CH_U_84
 70
     0
 10
0.0
 20
0.0
 30
0.0
  3
HATCH-CH_U_84
  1

  0
LWPOLYLINE
  5
318
100
AcDbEntity
  8
LAYER01
370
    13
390
0
  6
Continuous
 62
   213
100
AcDbPolyline
 90
        2
 70
     0
 10
5347.488281
 20
762.94873
 10
5349.088379
 20
764.548584
  0
LWPOLYLINE
  5
319
100
AcDbEntity
  8
LAYER01
370
    13
390
0
  6
Continuous
 62
   213
100
AcDbPolyline
 90
        2
 70
     0
 10
5347.488281
 20
765.642822
 10
5349.088379
 20
767.242676
  0
LWPOLYLINE
  5
31A
100
AcDbEntity
  8
LAYER01
370
    13
390
0
  6
Continuous
 62
   213
100
AcDbPolyline
 90
        2
 70
     0
 10
5347.488281
 20
768.336914
 10
5349.088379
 20
769.936768
  0
LWPOLYLINE
  5
31B
100
AcDbEntity
  8
LAYER01
370
    13
390
0
  6
Continuous
 62
   213
100
AcDbPolyline
 90
        2
 70
     0
 10
5347.488281
 20
771.031006
 10
5348.807129
 20
772.349854
  0
LWPOLYLINE
  5
31C
100
AcDbEntity
  8
LAYER01
370
    13
390
0
  6
Continuous
 62
   213
100
AcDbPolyline
 90
        2
 70
     0
 10
5347.5
 20
776.430908
 10
5349.088379
 20
778.019043
  0
LWPOLYLINE
  5
31D
100
AcDbEntity
  8
LAYER01
370
    13
390
0
  6
Continuous
 62
   213
100
AcDbPolyline
 90
        2
 70
     0
 10
5347.488281
 20
779.113037
 10
5349.088379
 20
780.713135
  0
LWPOLYLINE
  5
31E
100
AcDbEntity
  8
LAYER01
370
    13
390
0
  6
Continuous
 62
   213
100
AcDbPolyline
 90
        2
 70
     0
 10
5347.488281
 20
781.807129
 10
5349.088379
 20
783.407227
  0
LWPOLYLINE
  5
31F
100
AcDbEntity
  8
LAYER01
370
    13
390
0
  6
Continuous
 62
   213
100
AcDbPolyline
 90
        2
 70
     0
 10
5347.488281
 20
784.501221
 10
5349.088379
 20
786.101318
  0
LWPOLYLINE
  5
320
100
AcDbEntity
  8
LAYER01
370
    13
390
0
  6
Continuous
 62
   213
100
AcDbPolyline
 90
        2
 70
     0
 10
5347.488281
 20
787.195313
 10
5349.088379
 20
788.79541
  0
LWPOLYLINE
  5
321
100
AcDbEntity
  8
LAYER01
370
    13
390
0
  6
Continuous
 62
   213
100
AcDbPolyline
 90
        2
 70
     0
 10
5347.488281
 20
789.889404
 10
5349.088379
 20
791.489502
  0
LWPOLYLINE
  5
322
100
AcDbEntity
  8
LAYER01
370
    13
390
0
  6
Continuous
 62
   213
100
AcDbPolyline
 90
        2
 70
     0
 10
5347.488281
 20
792.583496
 10
5349.088379
 20
794.183594
  0
LWPOLYLINE
  5
323
100
AcDbEntity
  8
LAYER01
370
    13
390
0
  6
Continuous
 62
   213
100
AcDbPolyline
 90
        2
 70
     0
 10
5347.488281
 20
795.277588
 10
5349.088379
 20
796.877686
  0
LWPOLYLINE
  5
324
100
AcDbEntity
  8
LAYER01
370
    13
390
0
  6
Continuous
 62
   213
100
AcDbPolyline
 90
        2
 70
     0
 10
5347.488281
 20
797.97168
 10
5349.088379
 20
799.571777
  0
LWPOLYLINE
  5
325
100
AcDbEntity
  8
LAYER01
370
    13
390
0
  6
Continuous
 62
   213
100
AcDbPolyline
 90
        2
 70
     0
 10
5347.488281
 20
800.665771
 10
5349.088379
 20
802.265869
  0
LWPOLYLINE
  5
326
100
AcDbEntity
  8
LAYER01
370
    13
390
0
  6
Continuous
 62
   213
100
AcDbPolyline
 90
        2
 70
     0
 10
5347.488281
 20
803.359863
 10
5349.088379
 20
804.959717
  0
LWPOLYLINE
  5
327
100
AcDbEntity
  8
LAYER01
370
    13
390
0
  6
Continuous
 62
   213
100
AcDbPolyline
 90
        2
 70
     0
 10
5347.488281
 20
806.053955
 10
5349.088379
 20
807.653809
  0
LWPOLYLINE
  5
328
100
AcDbEntity
  8
LAYER01
370
    13
390
0
  6
Continuous
 62
   213
100
AcDbPolyline
 90
        2
 70
     0
 10
5347.488281
 20
808.748047
 10
5349.088379
 20
810.3479
  0
LWPOLYLINE
  5
329
100
AcDbEntity
  8
LAYER01
370
    13
390
0
  6
Continuous
 62
   213
100
AcDbPolyline
 90
        2
 70
     0
 10
5347.488281
 20
811.442139
 10
5349.088379
 20
813.041992
  0
LWPOLYLINE
  5
32A
100
AcDbEntity
  8
LAYER01
370
    13
390
0
  6
Continuous
 62
   213
100
AcDbPolyline
 90
        2
 70
     0
 10
5347.488281
 20
760.254639
 10
5349.088379
 20
761.854492
  0
LWPOLYLINE
  5
32B
100
AcDbEntity
  8
LAYER01
370
    13
390
0
  6
Continuous
 62
   213
100
AcDbPolyline
 90
        2
 70
     0
 10
5347.488281
 20
757.560547
 10
5349.088379
 20
759.160645
  0
LWPOLYLINE
  5
32C
100
AcDbEntity
  8
LAYER01
370
    13
390
0
  6
Continuous
 62
   213
100
AcDbPolyline
 90
        2
 70
     0
 10
5347.488281
 20
754.866455
 10
5349.088379
 20
756.466553
  0
LWPOLYLINE
  5
32D
100
AcDbEntity
  8
LAYER01
370
    13
390
0
  6
Continuous
 62
   213
100
AcDbPolyline
 90
        2
 70
     0
 10
5349.166016
 20
753.849854
 10
5350.765625
 20
755.449707
  0
LWPOLYLINE
  5
32E
100
AcDbEntity
  8
LAYER01
370
    13
390
0
  6
Continuous
 62
   213
100
AcDbPolyline
 90
        2
 70
     0
 10
5351.859863
 20
753.849854
 10
5353.459961
 20
755.449707
  0
LWPOLYLINE
  5
32F
100
AcDbEntity
  8
LAYER01
370
    13
390
0
  6
Continuous
 62
   213
100
AcDbPolyline
 90
        2
 70
     0
 10
5354.553711
 20
753.849854
 10
5356.153809
 20
755.449707
  0
LWPOLYLINE
  5
330
100
AcDbEntity
  8
LAYER01
370
    13
390
0
  6
Continuous
 62
   213
100
AcDbPolyline
 90
        2
 70
     0
 10
5357.248047
 20
753.849854
 10
5358.847656
 20
755.449707
  0
LWPOLYLINE
  5
331
100
AcDbEntity
  8
LAYER01
370
    13
390
0
  6
Continuous
 62
   213
100
AcDbPolyline
 90
        2
 70
     0
 10
5359.941895
 20
753.849854
 10
5361.541992
 20
755.449707
  0
LWPOLYLINE
  5
332
100
AcDbEntity
  8
LAYER01
370
    13
390
0
  6
Continuous
 62
   213
100
AcDbPolyline
 90
        2
 70
     0
 10
5362.63623
 20
753.849854
 10
5364.236328
 20
755.449707
  0
LWPOLYLINE
  5
333
100
AcDbEntity
  8
LAYER01
370
    13
390
0
  6
Continuous
 62
   213
100
AcDbPolyline
 90
        2
 70
     0
 10
5365.330078
 20
753.849854
 10
5366.930176
 20
755.449707
  0
LWPOLYLINE
  5
334
100
AcDbEntity
  8
LAYER01
370
    13
390
0
  6
Continuous
 62
   213
100
AcDbPolyline
 90
        2
 70
     0
 10
5368.024414
 20
753.849854
 10
5369.624023
 20
755.449707
  0
LWPOLYLINE
  5
335
100
AcDbEntity
  8
LAYER01
370
    13
390
0
  6
Continuous
 62
   213
100
AcDbPolyline
 90
        2
 70
     0
 10
5370.718262
 20
753.849854
 10
5372.318359
 20
755.449707
  0
LWPOLYLINE
  5
336
100
AcDbEntity
  8
LAYER01
370
    13
390
0
  6
Continuous
 62
   213
100
AcDbPolyline
 90
        2
 70
     0
 10
5373.412109
 20
753.849854
 10
5375.012695
 20
755.449707
  0
LWPOLYLINE
  5
337
100
AcDbEntity
  8
LAYER01
370
    13
390
0
  6
Continuous
 62
   213
100
AcDbPolyline
 90
        2
 70
     0
 10
5376.106445
 20
753.849854
 10
5377.693359
 20
755.436768
  0
LWPOLYLINE
  5
338
100
AcDbEntity
  8
LAYER01
370
    13
390
0
  6
Continuous
 62
   213
100
AcDbPolyline
 90
        2
 70
     0
 10
5378.800781
 20
753.849854
 10
5380.227539
 20
755.276611
  0
LWPOLYLINE
  5
339
100
AcDbEntity
  8
LAYER01
370
    13
390
0
  6
Continuous
 62
   213
100
AcDbPolyline
 90
        2
 70
     0
 10
5381.494629
 20
753.849854
 10
5382.761719
 20
755.116455
  0
LWPOLYLINE
  5
33A
100
AcDbEntity
  8
LAYER01
370
    13
390
0
  6
Continuous
 62
   213
100
AcDbPolyline
 90
        2
 70
     0
 10
5384.188477
 20
753.849854
 10
5385.29541
 20
754.956299
  0
LWPOLYLINE
  5
33B
100
AcDbEntity
  8
LAYER01
370
    13
390
0
  6
Continuous
 62
   213
100
AcDbPolyline
 90
        2
 70
     0
 10
5386.882813
 20
753.849854
 10
5387.479004
 20
754.445801
  0
ENDBLK
  5
33C
100
AcDbEntity
  8
0
390
0
100
AcDbBlockEnd
  0
BLOCK
  5
34C
100
AcDbEntity
  8
0
390
0
100
AcDbBlockBegin
  2
X80_F_US_U_84
 70
     0
 10
0.0
 20
0.0
 30
0.0
  3
X80_F_US_U_84
  1

  0
LWPOLYLINE
  5
34D
100
AcDbEntity
  8
LAYER01
370
    35
390
0
  6
Continuous
 62
   134
100
AcDbPolyline
 90
        2
 70
     0
 10
0.0
 20
-9.25
 10
3.800049
 20
-9.25
  0
LWPOLYLINE
  5
34E
100
AcDbEntity
  8
LAYER01
370
    35
390
0
  6
Continuous
 62
   134
100
AcDbPolyline
 90
        2
 70
     0
 10
2.199951
 20
-9.25
 10
2.200195
 20
9.25
  0
LWPOLYLINE
  5
34F
100
AcDbEntity
  8
LAYER01
370
    35
390
0
  6
Continuous
 62
   134
100
AcDbPolyline
 90
        2
 70
     0
 10
2.199951
 20
9.25
 10
0.0
 20
9.25
  0
LWPOLYLINE
  5
350
100
AcDbEntity
  8
LAYER01
370
    35
390
0
  6
Continuous
 62
   134
100
AcDbPolyline
 90
        2
 70
     0
 10
3.800049
 20
-9.25
 10
3.800049
 20
9.25
  0
LWPOLYLINE
  5
351
100
AcDbEntity
  8
LAYER01
370
    35
390
0
  6
Continuous
 62
   134
100
AcDbPolyline
 90
        2
 70
     0
 10
3.800049
 20
9.25
 10
2.199951
 20
9.25
  0
INSERT
  5
35F
100
AcDbEntity
  8
LAYER01
390
0
100
AcDbBlockReference
  2
2--C2EV-CI_U_84
 10
10.599915
 20
0.0
 30
0.0
 50
180.0
  0
ENDBLK
  5
360
100
AcDbEntity
  8
0
390
0
100
AcDbBlockEnd
  0
BLOCK
  5
353
100
AcDbEntity
  8
0
390
0
100
AcDbBlockBegin
  2
2--C2EV-CI_U_84
 70
     0
 10
0.0
 20
0.0
 30
0.0
  3
2--C2EV-CI_U_84
  1

  0
LWPOLYLINE
  5
354
100
AcDbEntity
  8
LAYER21
370
    13
390
0
  6
Continuous
 62
   213
100
AcDbPolyline
 90
        4
 70
     1
 10
6.799866
 20
7.508911
 10
6.799866
 20
-7.508911
 10
-0.000183
 20
-7.508911
 10
0.000061
 20
7.508911
  0
LWPOLYLINE
  5
356
100
AcDbEntity
  8
LAYER21
370
    13
390
0
  6
Continuous
 62
   213
100
AcDbPolyline
 90
        8
 70
     1
 10
5.987366
 20
3.754517
 10
6.190735
 20
3.218872
 42
-0.18335
 10
6.190735
 20
-3.218872
 10
5.987366
 20
-3.754517
 10
0.812317
 20
-3.754517
 10
0.609924
 20
-3.220947
 42
-0.183462
 10
0.611389
 20
3.220459
 10
0.812561
 20
3.749634
  0
LWPOLYLINE
  5
357
100
AcDbEntity
  8
LAYER21
370
    13
390
0
  6
Continuous
 62
   213
100
AcDbPolyline
 90
        8
 70
     1
 10
5.987366
 20
-3.749634
 10
6.337952
 20
-4.384033
 42
-0.258495
 10
6.335266
 20
-6.877808
 10
5.987366
 20
-7.504028
 10
0.812317
 20
-7.504028
 10
0.464661
 20
-6.877808
 42
-0.258495
 10
0.461731
 20
-4.384033
 10
0.812561
 20
-3.749634
  0
LWPOLYLINE
  5
358
100
AcDbEntity
  8
LAYER21
370
    13
390
0
  6
Continuous
 62
   213
100
AcDbPolyline
 90
        8
 70
     1
 10
5.987366
 20
7.513794
 10
6.337952
 20
6.879272
 42
-0.258495
 10
6.335266
 20
4.38562
 10
5.987366
 20
3.759399
 10
0.812317
 20
3.759399
 10
0.464661
 20
4.38562
 42
-0.258495
 10
0.461731
 20
6.879272
 10
0.812561
 20
7.513794
  0
LWPOLYLINE
  5
359
100
AcDbEntity
  8
LAYER21
370
    13
390
0
  6
Continuous
 62
   213
100
AcDbPolyline
 90
        2
 70
     0
 10
5.987366
 20
3.754517
 10
0.812561
 20
3.754517
  0
LWPOLYLINE
  5
35A
100
AcDbEntity
  8
LAYER21
370
    13
390
0
  6
Continuous
 62
   213
100
AcDbPolyline
 90
        2
 70
     0
 10
5.987366
 20
-3.754517
 10
0.812561
 20
-3.754517
  0
LWPOLYLINE
  5
35B
100
AcDbEntity
  8
LAYER21
370
    13
390
0
  6
Continuous
 62
   213
100
AcDbPolyline
 90
        2
 70
     0
 10
-0.612244
 20
0.0
 10
7.41217
 20
0.0
  0
LWPOLYLINE
  5
35C
100
AcDbEntity
  8
LAYER21
370
    13
390
0
  6
Continuous
 62
   213
100
AcDbPolyline
 90
        5
 70
     1
 10
6.799866
 20
4.002441
 10
86.124084
 20
4.002441
 10
96.799866
 20
0.0
 10
86.124084
 20
-4.002441
 10
6.799866
 20
-4.002441
  0
LWPOLYLINE
  5
35D
100
AcDbEntity
  8
LAYER21
370
    13
390
0
  6
Continuous
 62
   213
100
AcDbPolyline
 90
        2
 70
     0
 10
-6.577087
 20
0.0
 10
110.911194
 20
0.0
  0
ENDBLK
  5
35E
100
AcDbEntity
  8
0
390
0
100
AcDbBlockEnd
  0
BLOCK
  5
363
100
AcDbEntity
  8
0
390
0
100
AcDbBlockBegin
  2
_D---BLQ_U_84
 70
     0
 10
0.0
 20
0.0
 30
0.0
  3
_D---BLQ_U_84
  1

  0
LWPOLYLINE
  5
364
100
AcDbEntity
  8
LAYER01
370
    18
390
0
  6
Continuous
 62
     7
100
AcDbPolyline
 90
        2
 70
     0
 10
5442.425293
 20
753.849854
 10
5454.932129
 20
753.849854
  0
LWPOLYLINE
  5
365
100
AcDbEntity
  8
LAYER01
370
    18
390
0
  6
Continuous
 62
     7
100
AcDbPolyline
 90
        2
 70
     0
 10
5460.977539
 20
783.849854
 10
5450.932129
 20
783.849854
  0
LWPOLYLINE
  5
366
100
AcDbEntity
  8
LAYER01
370
    18
390
0
  6
Continuous
 62
     7
100
AcDbPolyline
 90
        2
 70
     0
 10
5452.932129
 20
758.849854
 10
5452.932129
 20
778.849854
  0
LWPOLYLINE
  5
367
102
{ACAD_REACTORS
330
368
102
}
100
AcDbEntity
  8
HATCH_REACTORS
390
0
100
AcDbPolyline
 90
        3
 70
     1
 10
5453.765137
 20
758.849854
 10
5452.932129
 20
753.849854
 10
5452.098633
 20
758.849854
  0
HATCH
  5
368
100
AcDbEntity
  8
LAYER01
370
     5
390
0
  6
Continuous
 62
     7
100
AcDbHatch
 10
0.0
 20
0.0
 30
0.0
210
0.0
220
0.0
230
1.0
  2
_L-O---1
 70
     1
 71
     1
 91
        1
 92
        2
 72
     0
 73
     1
 93
        3
 10
5453.76513671875
 20
758.849853515625
 10
5452.93212890625
 20
753.849853515625
 10
5452.0986328125
 20
758.849853515625
 97
        1
330
367
 75
     0
 76
     0
 98
        0
  0
LWPOLYLINE
  5
369
102
{ACAD_REACTORS
330
36A
102
}
100
AcDbEntity
  8
HATCH_REACTORS
390
0
100
AcDbPolyline
 90
        3
 70
     1
 10
5453.765137
 20
778.849854
 10
5452.098633
 20
778.849854
 10
5452.932129
 20
783.849854
  0
HATCH
  5
36A
100
AcDbEntity
  8
LAYER01
370
     5
390
0
  6
Continuous
 62
     7
100
AcDbHatch
 10
0.0
 20
0.0
 30
0.0
210
0.0
220
0.0
230
1.0
  2
_L-O---1
 70
     1
 71
     1
 91
        1
 92
        2
 72
     0
 73
     1
 93
        3
 10
5453.76513671875
 20
778.849853515625
 10
5452.0986328125
 20
778.849853515625
 10
5452.93212890625
 20
783.849853515625
 97
        1
330
369
 75
     0
 76
     0
 98
        0
  0
MTEXT
  5
36B
100
AcDbEntity
  8
LAYER01
390
0
  6
Continuous
 62
     7
100
AcDbMText
 10
5446.432129
 20
765.83606
 30
0.0
 40
3.24
 41
0.0
 71
     7
 72
     1
  1
{\fArial|b0|i0|c12|p0;_       }
 11
0.0
 21
1.0
 31
0.0
 73
     1
 44
1.333333
  0
MTEXT
  5
36C
100
AcDbEntity
  8
LAYER01
390
0
  6
Continuous
 62
     7
100
AcDbMText
 10
5446.932129
 20
765.083374
 30
0.0
 40
4.5
 41
0.0
 71
     7
 72
     1
  1
{\fArial|b0|i0|c12|p0;>28*}
 11
0.0
 21
1.0
 31
0.0
 73
     1
 44
1.333333
  0
ENDBLK
  5
36D
100
AcDbEntity
  8
0
390
0
100
AcDbBlockEnd
  0
BLOCK
  5
382
100
AcDbEntity
  8
0
390
0
100
AcDbBlockBegin
  2
1-115_TV_U_84
 70
     0
 10
0.0
 20
0.0
 30
0.0
  3
1-115_TV_U_84
  1

  0
LWPOLYLINE
  5
383
100
AcDbEntity
  8
LAYER01
370
    13
390
0
  6
Continuous
 62
   213
100
AcDbPolyline
 90
        2
 70
     0
 10
3.0
 20
57.267822
 42
-0.267949
 10
4.0
 20
55.535889
  0
LWPOLYLINE
  5
384
100
AcDbEntity
  8
LAYER01
370
    13
390
0
  6
Continuous
 62
   213
100
AcDbPolyline
 90
        2
 70
     0
 10
3.0
 20
57.268066
 42
-0.267949
 10
2.000244
 20
59.0
  0
LWPOLYLINE
  5
385
100
AcDbEntity
  8
LAYER01
370
    35
390
0
  6
Continuous
 62
   134
100
AcDbPolyline
 90
        2
 70
     0
 10
2.0
 20
59.0
 10
2.0
 20
64.0
  0
LWPOLYLINE
  5
386
100
AcDbEntity
  8
LAYER01
370
    13
390
0
  6
Continuous
 62
   213
100
AcDbPolyline
 90
        2
 70
     0
 10
0.0
 20
64.0
 42
-1.0
 10
2.0
 20
64.0
  0
LWPOLYLINE
  5
387
100
AcDbEntity
  8
LAYER01
370
    35
390
0
  6
Continuous
 62
   134
100
AcDbPolyline
 90
        2
 70
     0
 10
0.0
 20
64.0
 10
0.0
 20
0.0
  0
LWPOLYLINE
  5
388
100
AcDbEntity
  8
LAYER01
370
    35
390
0
  6
Continuous
 62
   134
100
AcDbPolyline
 90
        2
 70
     0
 10
0.0
 20
0.0
 10
1.5
 20
0.0
  0
LWPOLYLINE
  5
389
100
AcDbEntity
  8
LAYER01
370
    35
390
0
  6
Continuous
 62
   134
100
AcDbPolyline
 90
        2
 70
     0
 10
1.5
 20
0.0
 10
1.5
 20
0.5
  0
LWPOLYLINE
  5
38A
100
AcDbEntity
  8
LAYER01
370
    13
390
0
  6
Continuous
 62
   213
100
AcDbPolyline
 90
        2
 70
     0
 10
1.5
 20
0.5
 42
-0.414214
 10
3.5
 20
2.5
  0
LWPOLYLINE
  5
38B
100
AcDbEntity
  8
LAYER01
370
    35
390
0
  6
Continuous
 62
   134
100
AcDbPolyline
 90
        2
 70
     0
 10
3.5
 20
2.5
 10
113.75
 20
2.5
  0
LWPOLYLINE
  5
38C
100
AcDbEntity
  8
LAYER01
370
    13
390
0
  6
Continuous
 62
   213
100
AcDbPolyline
 90
        2
 70
     0
 10
113.75
 20
5.0
 42
-1.0
 10
113.75
 20
2.5
  0
LWPOLYLINE
  5
38D
100
AcDbEntity
  8
LAYER01
370
    35
390
0
  6
Continuous
 62
   134
100
AcDbPolyline
 90
        2
 70
     0
 10
113.75
 20
5.0
 10
95.0
 20
5.0
  0
LWPOLYLINE
  5
38E
100
AcDbEntity
  8
LAYER01
370
    35
390
0
  6
Continuous
 62
   134
100
AcDbPolyline
 90
        2
 70
     0
 10
95.0
 20
5.0
 10
60.0
 20
6.5
  0
LWPOLYLINE
  5
38F
100
AcDbEntity
  8
LAYER01
370
    35
390
0
  6
Continuous
 62
   134
100
AcDbPolyline
 90
        2
 70
     0
 10
60.0
 20
6.5
 10
4.5
 20
6.5
  0
LWPOLYLINE
  5
390
100
AcDbEntity
  8
LAYER01
370
    13
390
0
  6
Continuous
 62
   213
100
AcDbPolyline
 90
        2
 70
     0
 10
4.5
 20
6.5
 42
-0.414214
 10
4.0
 20
7.0
  0
LWPOLYLINE
  5
391
100
AcDbEntity
  8
LAYER01
370
    35
390
0
  6
Continuous
 62
   134
100
AcDbPolyline
 90
        2
 70
     0
 10
4.0
 20
7.0
 10
4.0
 20
21.653809
  0
LWPOLYLINE
  5
392
100
AcDbEntity
  8
LAYER01
370
    13
390
0
  6
Continuous
 62
   213
100
AcDbPolyline
 90
        2
 70
     0
 10
4.0
 20
21.653564
 42
-0.866025
 10
4.0
 20
22.346436
  0
LWPOLYLINE
  5
393
100
AcDbEntity
  8
LAYER01
370
    35
390
0
  6
Continuous
 62
   134
100
AcDbPolyline
 90
        2
 70
     0
 10
4.0
 20
22.346436
 10
4.0
 20
55.535889
  0
LWPOLYLINE
  5
394
100
AcDbEntity
  8
LAYER01
370
    18
390
0
  6
DASHED
 62
     7
100
AcDbPolyline
 90
        2
 70
     0
 10
56.291992
 20
2.5
 42
-0.048984
 10
56.071045
 20
3.25
  0
LWPOLYLINE
  5
395
100
AcDbEntity
  8
LAYER01
370
    18
390
0
  6
DASHED
 62
     7
100
AcDbPolyline
 90
        2
 70
     0
 10
52.141846
 20
6.5
 42
-0.359988
 10
56.071045
 20
3.25
  0
LWPOLYLINE
  5
396
100
AcDbEntity
  8
LAYER01
370
    35
390
0
  6
Continuous
 62
   134
100
AcDbPolyline
 90
       10
 70
     0
 10
51.354248
 20
2.5
 42
-0.333961
 10
52.314941
 20
1.777832
 42
0.178753
 10
54.980225
 20
-2.63147
 42
0.173713
 10
60.394775
 20
-4.01709
 10
103.548828
 20
-1.525391
 10
112.254883
 20
-2.400391
 42
1.00001
 10
112.504883
 20
0.086914
 10
103.715576
 20
0.970459
 10
61.53125
 20
-0.930664
 42
-0.376605
 10
56.292236
 20
2.5
  0
LWPOLYLINE
  5
397
100
AcDbEntity
  8
LAYER01
370
    25
390
0
  6
DASHDOT
 62
    92
100
AcDbPolyline
 90
        2
 70
     0
 10
105.0
 20
1.5
 10
105.0
 20
6.0
  0
LWPOLYLINE
  5
398
100
AcDbEntity
  8
LAYER01
370
    18
390
0
  6
DASHED
 62
     7
100
AcDbPolyline
 90
        2
 70
     0
 10
102.5
 20
2.5
 10
102.5
 20
5.0
  0
LWPOLYLINE
  5
399
100
AcDbEntity
  8
LAYER01
370
    18
390
0
  6
DASHED
 62
     7
100
AcDbPolyline
 90
        2
 70
     0
 10
107.5
 20
2.5
 10
107.5
 20
5.0
  0
LWPOLYLINE
  5
39A
100
AcDbEntity
  8
LAYER01
370
    25
390
0
  6
DASHDOT
 62
    92
100
AcDbPolyline
 90
        2
 70
     0
 10
-2.0
 20
22.0
 10
7.878906
 20
22.0
  0
LWPOLYLINE
  5
39B
100
AcDbEntity
  8
LAYER01
370
    18
390
0
  6
DASHED
 62
     7
100
AcDbPolyline
 90
        2
 70
     0
 10
0.0
 20
33.0
 10
4.0
 20
33.0
  0
LWPOLYLINE
  5
39C
100
AcDbEntity
  8
LAYER01
370
    18
390
0
  6
DASHED
 62
     7
100
AcDbPolyline
 90
        2
 70
     0
 10
0.0
 20
11.0
 10
4.0
 20
11.0
  0
ENDBLK
  5
39D
100
AcDbEntity
  8
0
390
0
100
AcDbBlockEnd
  0
BLOCK
  5
3A1
100
AcDbEntity
  8
0
390
0
100
AcDbBlockBegin
  2
04006016_U_84
 70
     0
 10
0.0
 20
0.0
 30
0.0
  3
04006016_U_84
  1

  0
LWPOLYLINE
  5
3A2
100
AcDbEntity
  8
LAYER01
370
    35
390
0
  6
Continuous
 62
   134
100
AcDbPolyline
 90
        2
 70
     0
 10
2.099976
 20
1.599854
 10
30.0
 20
1.599854
  0
LWPOLYLINE
  5
3A3
100
AcDbEntity
  8
LAYER01
370
    35
390
0
  6
Continuous
 62
   134
100
AcDbPolyline
 90
        2
 70
     0
 10
30.0
 20
1.599854
 10
39.495178
 20
0.999756
  0
LWPOLYLINE
  5
3A4
100
AcDbEntity
  8
LAYER01
370
    35
390
0
  6
Continuous
 62
   134
100
AcDbPolyline
 90
        2
 70
     0
 10
39.499939
 20
0.0
 10
0.799927
 20
0.0
  0
LWPOLYLINE
  5
3A5
100
AcDbEntity
  8
LAYER01
370
    13
390
0
  6
Continuous
 62
   213
100
AcDbPolyline
 90
        2
 70
     0
 10
0.0
 20
1.0
 42
0.457422
 10
0.799927
 20
0.0
  0
LWPOLYLINE
  5
3A6
100
AcDbEntity
  8
LAYER01
370
    35
390
0
  6
Continuous
 62
   134
100
AcDbPolyline
 90
        2
 70
     0
 10
0.0
 20
1.0
 10
0.0
 20
9.754883
  0
LWPOLYLINE
  5
3A7
100
AcDbEntity
  8
LAYER01
370
    13
390
0
  6
Continuous
 62
   213
100
AcDbPolyline
 90
        2
 70
     0
 10
-0.000122
 20
10.244873
 42
0.816497
 10
-0.000122
 20
9.754883
  0
LWPOLYLINE
  5
3A8
100
AcDbEntity
  8
LAYER01
370
    35
390
0
  6
Continuous
 62
   134
100
AcDbPolyline
 90
        2
 70
     0
 10
0.0
 20
10.244873
 10
0.0
 20
29.754883
  0
LWPOLYLINE
  5
3A9
100
AcDbEntity
  8
LAYER01
370
    13
390
0
  6
Continuous
 62
   213
100
AcDbPolyline
 90
        2
 70
     0
 10
-0.000122
 20
30.244873
 42
0.816497
 10
-0.000122
 20
29.754883
  0
LWPOLYLINE
  5
3AA
100
AcDbEntity
  8
LAYER01
370
    35
390
0
  6
Continuous
 62
   134
100
AcDbPolyline
 90
        2
 70
     0
 10
0.0
 20
30.244873
 10
0.0
 20
49.754883
  0
LWPOLYLINE
  5
3AB
100
AcDbEntity
  8
LAYER01
370
    13
390
0
  6
Continuous
 62
   213
100
AcDbPolyline
 90
        2
 70
     0
 10
-0.000122
 20
50.244873
 42
0.816497
 10
-0.000122
 20
49.754883
  0
LWPOLYLINE
  5
3AC
100
AcDbEntity
  8
LAYER01
370
    35
390
0
  6
Continuous
 62
   134
100
AcDbPolyline
 90
        2
 70
     0
 10
0.0
 20
50.244873
 10
0.0
 20
59.0
  0
LWPOLYLINE
  5
3AD
100
AcDbEntity
  8
LAYER01
370
    13
390
0
  6
Continuous
 62
   213
100
AcDbPolyline
 90
        2
 70
     0
 10
1.599976
 20
58.999756
 42
1.25
 10
-0.000122
 20
58.999756
  0
LWPOLYLINE
  5
3AE
100
AcDbEntity
  8
LAYER01
370
    35
390
0
  6
Continuous
 62
   134
100
AcDbPolyline
 90
        2
 70
     0
 10
1.599976
 20
59.0
 10
1.599976
 20
55.346191
  0
LWPOLYLINE
  5
3AF
100
AcDbEntity
  8
LAYER01
370
    35
390
0
  6
Continuous
 62
   134
100
AcDbPolyline
 90
        2
 70
     0
 10
1.599976
 20
54.653564
 10
1.599976
 20
50.244873
  0
LWPOLYLINE
  5
3B0
100
AcDbEntity
  8
LAYER01
370
    13
390
0
  6
Continuous
 62
   213
100
AcDbPolyline
 90
        2
 70
     0
 10
1.599854
 20
50.244873
 42
0.816497
 10
1.599854
 20
49.754883
  0
LWPOLYLINE
  5
3B1
100
AcDbEntity
  8
LAYER01
370
    35
390
0
  6
Continuous
 62
   134
100
AcDbPolyline
 90
        2
 70
     0
 10
1.599976
 20
49.754883
 10
1.599976
 20
30.244873
  0
LWPOLYLINE
  5
3B2
100
AcDbEntity
  8
LAYER01
370
    13
390
0
  6
Continuous
 62
   213
100
AcDbPolyline
 90
        2
 70
     0
 10
1.599854
 20
30.244873
 42
0.816497
 10
1.599854
 20
29.754883
  0
LWPOLYLINE
  5
3B3
100
AcDbEntity
  8
LAYER01
370
    35
390
0
  6
Continuous
 62
   134
100
AcDbPolyline
 90
        2
 70
     0
 10
1.599976
 20
29.754883
 10
1.599976
 20
10.244873
  0
LWPOLYLINE
  5
3B4
100
AcDbEntity
  8
LAYER01
370
    13
390
0
  6
Continuous
 62
   213
100
AcDbPolyline
 90
        2
 70
     0
 10
1.599854
 20
10.244873
 42
0.816497
 10
1.599854
 20
9.754883
  0
LWPOLYLINE
  5
3B5
100
AcDbEntity
  8
LAYER01
370
    35
390
0
  6
Continuous
 62
   134
100
AcDbPolyline
 90
        2
 70
     0
 10
1.599976
 20
9.754883
 10
1.599976
 20
2.099854
  0
LWPOLYLINE
  5
3B6
100
AcDbEntity
  8
LAYER01
370
    13
390
0
  6
Continuous
 62
   213
100
AcDbPolyline
 90
        2
 70
     0
 10
1.599976
 20
2.099854
 42
0.414214
 10
2.099976
 20
1.599854
  0
LWPOLYLINE
  5
3B7
100
AcDbEntity
  8
LAYER01
370
    13
390
0
  6
Continuous
 62
   213
100
AcDbPolyline
 90
        2
 70
     0
 10
1.599854
 20
55.346436
 42
0.866025
 10
1.599854
 20
54.653564
  0
LWPOLYLINE
  5
3B8
100
AcDbEntity
  8
LAYER01
370
    13
390
0
  6
Continuous
 62
   213
100
AcDbPolyline
 90
        2
 70
     0
 10
39.499939
 20
0.0
 42
1.004744
 10
39.495178
 20
1.0
  0
ENDBLK
  5
3B9
100
AcDbEntity
  8
0
390
0
100
AcDbBlockEnd
  0
BLOCK
  5
3C0
100
AcDbEntity
  8
0
390
0
100
AcDbBlockBegin
  2
HATCH-CJ_U_84
 70
     0
 10
0.0
 20
0.0
 30
0.0
  3
HATCH-CJ_U_84
  1

  0
LWPOLYLINE
  5
3C1
100
AcDbEntity
  8
LAYER01
370
    13
390
0
  6
Continuous
 62
   213
100
AcDbPolyline
 90
        2
 70
     0
 10
5478.588379
 20
864.538574
 10
5459.277344
 20
883.849854
  0
LWPOLYLINE
  5
3C2
100
AcDbEntity
  8
LAYER01
370
    13
390
0
  6
Continuous
 62
   213
100
AcDbPolyline
 90
        2
 70
     0
 10
5478.588379
 20
860.048584
 10
5458.588379
 20
880.048584
  0
LWPOLYLINE
  5
3C3
100
AcDbEntity
  8
LAYER01
370
    13
390
0
  6
Continuous
 62
   213
100
AcDbPolyline
 90
        2
 70
     0
 10
5477.296875
 20
856.849854
 10
5458.588379
 20
875.55835
  0
LWPOLYLINE
  5
3C4
100
AcDbEntity
  8
LAYER01
370
    13
390
0
  6
Continuous
 62
   213
100
AcDbPolyline
 90
        2
 70
     0
 10
5472.806641
 20
856.849854
 10
5458.588379
 20
871.068359
  0
LWPOLYLINE
  5
3C5
100
AcDbEntity
  8
LAYER01
370
    13
390
0
  6
Continuous
 62
   213
100
AcDbPolyline
 90
        2
 70
     0
 10
5468.316895
 20
856.849854
 10
5458.588379
 20
866.578125
  0
LWPOLYLINE
  5
3C6
100
AcDbEntity
  8
LAYER01
370
    13
390
0
  6
Continuous
 62
   213
100
AcDbPolyline
 90
        2
 70
     0
 10
5463.82666
 20
856.849854
 10
5458.588379
 20
862.087891
  0
LWPOLYLINE
  5
3C7
100
AcDbEntity
  8
LAYER01
370
    13
390
0
  6
Continuous
 62
   213
100
AcDbPolyline
 90
        2
 70
     0
 10
5459.336426
 20
856.849854
 10
5458.588379
 20
857.5979
  0
LWPOLYLINE
  5
3C8
100
AcDbEntity
  8
LAYER01
370
    13
390
0
  6
Continuous
 62
   213
100
AcDbPolyline
 90
        2
 70
     0
 10
5478.588379
 20
869.028809
 10
5463.767578
 20
883.849854
  0
LWPOLYLINE
  5
3C9
100
AcDbEntity
  8
LAYER01
370
    13
390
0
  6
Continuous
 62
   213
100
AcDbPolyline
 90
        2
 70
     0
 10
5478.588379
 20
873.518799
 10
5468.257324
 20
883.849854
  0
LWPOLYLINE
  5
3CA
100
AcDbEntity
  8
LAYER01
370
    13
390
0
  6
Continuous
 62
   213
100
AcDbPolyline
 90
        2
 70
     0
 10
5478.588379
 20
878.009033
 10
5472.747559
 20
883.849854
  0
LWPOLYLINE
  5
3CB
100
AcDbEntity
  8
LAYER01
370
    13
390
0
  6
Continuous
 62
   213
100
AcDbPolyline
 90
        2
 70
     0
 10
5478.588379
 20
882.499268
 10
5477.237793
 20
883.849854
  0
LWPOLYLINE
  5
3CC
100
AcDbEntity
  8
LAYER01
370
    13
390
0
  6
Continuous
 62
   213
100
AcDbPolyline
 90
        2
 70
     0
 10
5478.588379
 20
880.063477
 10
5458.588379
 20
860.063477
  0
LWPOLYLINE
  5
3CD
100
AcDbEntity
  8
LAYER01
370
    13
390
0
  6
Continuous
 62
   213
100
AcDbPolyline
 90
        2
 70
     0
 10
5478.588379
 20
875.573242
 10
5459.864746
 20
856.849854
  0
LWPOLYLINE
  5
3CE
100
AcDbEntity
  8
LAYER01
370
    13
390
0
  6
Continuous
 62
   213
100
AcDbPolyline
 90
        2
 70
     0
 10
5478.588379
 20
871.083252
 10
5464.35498
 20
856.849854
  0
LWPOLYLINE
  5
3CF
100
AcDbEntity
  8
LAYER01
370
    13
390
0
  6
Continuous
 62
   213
100
AcDbPolyline
 90
        2
 70
     0
 10
5478.588379
 20
866.593018
 10
5468.845215
 20
856.849854
  0
LWPOLYLINE
  5
3D0
100
AcDbEntity
  8
LAYER01
370
    13
390
0
  6
Continuous
 62
   213
100
AcDbPolyline
 90
        2
 70
     0
 10
5478.588379
 20
862.103027
 10
5473.334961
 20
856.849854
  0
LWPOLYLINE
  5
3D1
100
AcDbEntity
  8
LAYER01
370
    13
390
0
  6
Continuous
 62
   213
100
AcDbPolyline
 90
        2
 70
     0
 10
5478.588379
 20
857.612793
 10
5477.825195
 20
856.849854
  0
LWPOLYLINE
  5
3D2
100
AcDbEntity
  8
LAYER01
370
    13
390
0
  6
Continuous
 62
   213
100
AcDbPolyline
 90
        2
 70
     0
 10
5477.884766
 20
883.849854
 10
5458.588379
 20
864.553711
  0
LWPOLYLINE
  5
3D3
100
AcDbEntity
  8
LAYER01
370
    13
390
0
  6
Continuous
 62
   213
100
AcDbPolyline
 90
        2
 70
     0
 10
5473.394531
 20
883.849854
 10
5458.588379
 20
869.043701
  0
LWPOLYLINE
  5
3D4
100
AcDbEntity
  8
LAYER01
370
    13
390
0
  6
Continuous
 62
   213
100
AcDbPolyline
 90
        2
 70
     0
 10
5468.904297
 20
883.849854
 10
5458.588379
 20
873.533936
  0
LWPOLYLINE
  5
3D5
100
AcDbEntity
  8
LAYER01
370
    13
390
0
  6
Continuous
 62
   213
100
AcDbPolyline
 90
        2
 70
     0
 10
5464.414063
 20
883.849854
 10
5458.588379
 20
878.023926
  0
LWPOLYLINE
  5
3D6
100
AcDbEntity
  8
LAYER01
370
    13
390
0
  6
Continuous
 62
   213
100
AcDbPolyline
 90
        2
 70
     0
 10
5459.923828
 20
883.849854
 10
5458.588379
 20
882.51416
  0
ENDBLK
  5
3D7
100
AcDbEntity
  8
0
390
0
100
AcDbBlockEnd
  0
BLOCK
  5
3DE
100
AcDbEntity
  8
0
390
0
100
AcDbBlockBegin
  2
HATCH-CK_U_84
 70
     0
 10
0.0
 20
0.0
 30
0.0
  3
HATCH-CK_U_84
  1

  0
LWPOLYLINE
  5
3DF
100
AcDbEntity
  8
LAYER01
370
    13
390
0
  6
Continuous
 62
   213
100
AcDbPolyline
 90
        2
 70
     0
 10
5511.46875
 20
756.224365
 10
5509.46875
 20
758.224365
  0
LWPOLYLINE
  5
3E0
100
AcDbEntity
  8
LAYER01
370
    13
390
0
  6
Continuous
 62
   213
100
AcDbPolyline
 90
        2
 70
     0
 10
5511.148926
 20
753.849854
 10
5509.148926
 20
755.849854
  0
LWPOLYLINE
  5
3E1
100
AcDbEntity
  8
LAYER01
370
    13
390
0
  6
Continuous
 62
   213
100
AcDbPolyline
 90
        2
 70
     0
 10
5508.455078
 20
753.849854
 10
5506.455078
 20
755.849854
  0
LWPOLYLINE
  5
3E2
100
AcDbEntity
  8
LAYER01
370
    13
390
0
  6
Continuous
 62
   213
100
AcDbPolyline
 90
        2
 70
     0
 10
5505.760742
 20
753.849854
 10
5503.760742
 20
755.849854
  0
LWPOLYLINE
  5
3E3
100
AcDbEntity
  8
LAYER01
370
    13
390
0
  6
Continuous
 62
   213
100
AcDbPolyline
 90
        2
 70
     0
 10
5503.066895
 20
753.849854
 10
5501.066895
 20
755.849854
  0
LWPOLYLINE
  5
3E4
100
AcDbEntity
  8
LAYER01
370
    13
390
0
  6
Continuous
 62
   213
100
AcDbPolyline
 90
        2
 70
     0
 10
5500.372559
 20
753.849854
 10
5498.372559
 20
755.849854
  0
LWPOLYLINE
  5
3E5
100
AcDbEntity
  8
LAYER01
370
    13
390
0
  6
Continuous
 62
   213
100
AcDbPolyline
 90
        2
 70
     0
 10
5497.678711
 20
753.849854
 10
5495.678711
 20
755.849854
  0
LWPOLYLINE
  5
3E6
100
AcDbEntity
  8
LAYER01
370
    13
390
0
  6
Continuous
 62
   213
100
AcDbPolyline
 90
        3
 70
     0
 10
5494.984375
 20
753.849854
 10
5494.46875
 20
754.365723
 10
5492.984375
 20
755.849854
  0
LWPOLYLINE
  5
3E7
100
AcDbEntity
  8
LAYER01
370
    13
390
0
  6
Continuous
 62
   213
100
AcDbPolyline
 90
        2
 70
     0
 10
5492.290527
 20
753.849854
 10
5490.290527
 20
755.849854
  0
LWPOLYLINE
  5
3E8
100
AcDbEntity
  8
LAYER01
370
    13
390
0
  6
Continuous
 62
   213
100
AcDbPolyline
 90
        2
 70
     0
 10
5489.596191
 20
753.849854
 10
5487.596191
 20
755.849854
  0
LWPOLYLINE
  5
3E9
100
AcDbEntity
  8
LAYER01
370
    13
390
0
  6
Continuous
 62
   213
100
AcDbPolyline
 90
        2
 70
     0
 10
5486.902344
 20
753.849854
 10
5484.902344
 20
755.849854
  0
LWPOLYLINE
  5
3EA
100
AcDbEntity
  8
LAYER01
370
    13
390
0
  6
Continuous
 62
   213
100
AcDbPolyline
 90
        2
 70
     0
 10
5484.208008
 20
753.849854
 10
5482.208008
 20
755.849854
  0
LWPOLYLINE
  5
3EB
100
AcDbEntity
  8
LAYER01
370
    13
390
0
  6
Continuous
 62
   213
100
AcDbPolyline
 90
        2
 70
     0
 10
5481.51416
 20
753.849854
 10
5479.51416
 20
755.849854
  0
LWPOLYLINE
  5
3EC
100
AcDbEntity
  8
LAYER01
370
    13
390
0
  6
Continuous
 62
   213
100
AcDbPolyline
 90
        2
 70
     0
 10
5478.820313
 20
753.849854
 10
5476.820313
 20
755.849854
  0
LWPOLYLINE
  5
3ED
100
AcDbEntity
  8
LAYER01
370
    13
390
0
  6
Continuous
 62
   213
100
AcDbPolyline
 90
        2
 70
     0
 10
5476.125977
 20
753.849854
 10
5474.125977
 20
755.849854
  0
LWPOLYLINE
  5
3EE
100
AcDbEntity
  8
LAYER01
370
    13
390
0
  6
Continuous
 62
   213
100
AcDbPolyline
 90
        2
 70
     0
 10
5473.432129
 20
753.849854
 10
5471.46875
 20
755.813232
  0
LWPOLYLINE
  5
3EF
100
AcDbEntity
  8
LAYER01
370
    13
390
0
  6
Continuous
 62
   213
100
AcDbPolyline
 90
        2
 70
     0
 10
5511.46875
 20
758.918457
 10
5509.46875
 20
760.918457
  0
LWPOLYLINE
  5
3F0
100
AcDbEntity
  8
LAYER01
370
    13
390
0
  6
Continuous
 62
   213
100
AcDbPolyline
 90
        2
 70
     0
 10
5511.46875
 20
761.612549
 10
5509.46875
 20
763.612549
  0
LWPOLYLINE
  5
3F1
100
AcDbEntity
  8
LAYER01
370
    13
390
0
  6
Continuous
 62
   213
100
AcDbPolyline
 90
        2
 70
     0
 10
5511.46875
 20
764.306641
 10
5509.46875
 20
766.306641
  0
LWPOLYLINE
  5
3F2
100
AcDbEntity
  8
LAYER01
370
    13
390
0
  6
Continuous
 62
   213
100
AcDbPolyline
 90
        2
 70
     0
 10
5511.46875
 20
767.000732
 10
5509.46875
 20
769.000732
  0
LWPOLYLINE
  5
3F3
100
AcDbEntity
  8
LAYER01
370
    13
390
0
  6
Continuous
 62
   213
100
AcDbPolyline
 90
        2
 70
     0
 10
5511.46875
 20
769.694824
 10
5509.46875
 20
771.694824
  0
LWPOLYLINE
  5
3F4
100
AcDbEntity
  8
LAYER01
370
    13
390
0
  6
Continuous
 62
   213
100
AcDbPolyline
 90
        2
 70
     0
 10
5511.46875
 20
772.388916
 10
5509.46875
 20
774.388916
  0
LWPOLYLINE
  5
3F5
100
AcDbEntity
  8
LAYER01
370
    13
390
0
  6
Continuous
 62
   213
100
AcDbPolyline
 90
        2
 70
     0
 10
5511.46875
 20
775.083008
 10
5509.46875
 20
777.083008
  0
LWPOLYLINE
  5
3F6
100
AcDbEntity
  8
LAYER01
370
    13
390
0
  6
Continuous
 62
   213
100
AcDbPolyline
 90
        2
 70
     0
 10
5511.46875
 20
777.776855
 10
5509.46875
 20
779.776855
  0
LWPOLYLINE
  5
3F7
100
AcDbEntity
  8
LAYER01
370
    13
390
0
  6
Continuous
 62
   213
100
AcDbPolyline
 90
        2
 70
     0
 10
5511.46875
 20
780.470947
 10
5509.46875
 20
782.470947
  0
LWPOLYLINE
  5
3F8
100
AcDbEntity
  8
LAYER01
370
    13
390
0
  6
Continuous
 62
   213
100
AcDbPolyline
 90
        3
 70
     0
 10
5511.46875
 20
783.165039
 10
5509.783691
 20
784.849854
 10
5509.46875
 20
785.165039
  0
LWPOLYLINE
  5
3F9
100
AcDbEntity
  8
LAYER01
370
    13
390
0
  6
Continuous
 62
   213
100
AcDbPolyline
 90
        2
 70
     0
 10
5511.46875
 20
785.859131
 10
5509.46875
 20
787.859131
  0
LWPOLYLINE
  5
3FA
100
AcDbEntity
  8
LAYER01
370
    13
390
0
  6
Continuous
 62
   213
100
AcDbPolyline
 90
        2
 70
     0
 10
5511.46875
 20
788.553223
 10
5509.46875
 20
790.553223
  0
LWPOLYLINE
  5
3FB
100
AcDbEntity
  8
LAYER01
370
    13
390
0
  6
Continuous
 62
   213
100
AcDbPolyline
 90
        2
 70
     0
 10
5511.46875
 20
791.247314
 10
5509.46875
 20
793.247314
  0
ENDBLK
  5
3FC
100
AcDbEntity
  8
0
390
0
100
AcDbBlockEnd
  0
BLOCK
  5
419
100
AcDbEntity
  8
0
390
0
100
AcDbBlockBegin
  2
HATCH-CL_U_84
 70
     0
 10
0.0
 20
0.0
 30
0.0
  3
HATCH-CL_U_84
  1

  0
LWPOLYLINE
  5
41A
100
AcDbEntity
  8
LAYER01
370
    13
390
0
  6
Continuous
 62
   213
100
AcDbPolyline
 90
        2
 70
     0
 10
5511.46875
 20
818.188232
 10
5509.46875
 20
820.188232
  0
LWPOLYLINE
  5
41B
100
AcDbEntity
  8
LAYER01
370
    13
390
0
  6
Continuous
 62
   213
100
AcDbPolyline
 90
        2
 70
     0
 10
5511.46875
 20
813.697998
 10
5509.46875
 20
815.697998
  0
LWPOLYLINE
  5
41C
100
AcDbEntity
  8
LAYER01
370
    13
390
0
  6
Continuous
 62
   213
100
AcDbPolyline
 90
        3
 70
     0
 10
5511.46875
 20
822.678223
 10
5510.296875
 20
823.849854
 10
5509.46875
 20
824.678223
  0
LWPOLYLINE
  5
41D
100
AcDbEntity
  8
LAYER01
370
    13
390
0
  6
Continuous
 62
   213
100
AcDbPolyline
 90
        2
 70
     0
 10
5484.296875
 20
849.849854
 10
5482.296875
 20
851.849854
  0
LWPOLYLINE
  5
41E
100
AcDbEntity
  8
LAYER01
370
    13
390
0
  6
Continuous
 62
   213
100
AcDbPolyline
 90
        2
 70
     0
 10
5511.46875
 20
827.168457
 10
5509.46875
 20
829.168457
  0
LWPOLYLINE
  5
41F
100
AcDbEntity
  8
LAYER01
370
    13
390
0
  6
Continuous
 62
   213
100
AcDbPolyline
 90
        2
 70
     0
 10
5488.787109
 20
849.849854
 10
5486.787109
 20
851.849854
  0
LWPOLYLINE
  5
420
100
AcDbEntity
  8
LAYER01
370
    13
390
0
  6
Continuous
 62
   213
100
AcDbPolyline
 90
        2
 70
     0
 10
5511.46875
 20
831.658447
 10
5509.46875
 20
833.658447
  0
LWPOLYLINE
  5
421
100
AcDbEntity
  8
LAYER01
370
    13
390
0
  6
Continuous
 62
   213
100
AcDbPolyline
 90
        2
 70
     0
 10
5493.277344
 20
849.849854
 10
5491.277344
 20
851.849854
  0
LWPOLYLINE
  5
422
100
AcDbEntity
  8
LAYER01
370
    13
390
0
  6
Continuous
 62
   213
100
AcDbPolyline
 90
        2
 70
     0
 10
5511.46875
 20
836.148682
 10
5509.46875
 20
838.148682
  0
LWPOLYLINE
  5
423
100
AcDbEntity
  8
LAYER01
370
    13
390
0
  6
Continuous
 62
   213
100
AcDbPolyline
 90
        2
 70
     0
 10
5511.46875
 20
840.638672
 10
5509.46875
 20
842.638672
  0
LWPOLYLINE
  5
424
100
AcDbEntity
  8
LAYER01
370
    13
390
0
  6
Continuous
 62
   213
100
AcDbPolyline
 90
        2
 70
     0
 10
5502.257324
 20
849.849854
 10
5500.257324
 20
851.849854
  0
LWPOLYLINE
  5
425
100
AcDbEntity
  8
LAYER01
370
    13
390
0
  6
Continuous
 62
   213
100
AcDbPolyline
 90
        2
 70
     0
 10
5511.46875
 20
845.128906
 10
5509.46875
 20
847.128906
  0
LWPOLYLINE
  5
426
100
AcDbEntity
  8
LAYER01
370
    13
390
0
  6
Continuous
 62
   213
100
AcDbPolyline
 90
        2
 70
     0
 10
5506.747559
 20
849.849854
 10
5504.747559
 20
851.849854
  0
LWPOLYLINE
  5
427
100
AcDbEntity
  8
LAYER01
370
    13
390
0
  6
Continuous
 62
   213
100
AcDbPolyline
 90
        2
 70
     0
 10
5511.46875
 20
849.618896
 10
5509.237793
 20
851.849854
  0
ENDBLK
  5
428
100
AcDbEntity
  8
0
390
0
100
AcDbBlockEnd
  0
BLOCK
  5
454
100
AcDbEntity
  8
0
390
0
100
AcDbBlockBegin
  2
HATCH-CM_U_84
 70
     0
 10
0.0
 20
0.0
 30
0.0
  3
HATCH-CM_U_84
  1

  0
LWPOLYLINE
  5
455
100
AcDbEntity
  8
LAYER01
370
    13
390
0
  6
Continuous
 62
   213
100
AcDbPolyline
 90
        2
 70
     0
 10
5480.106934
 20
879.549805
 10
5488.588379
 20
888.03125
  0
LWPOLYLINE
  5
456
100
AcDbEntity
  8
LAYER01
370
    13
390
0
  6
Continuous
 62
   213
100
AcDbPolyline
 90
        2
 70
     0
 10
5478.588379
 20
882.52124
 10
5488.588379
 20
892.52124
  0
LWPOLYLINE
  5
457
100
AcDbEntity
  8
LAYER01
370
    13
390
0
  6
Continuous
 62
   213
100
AcDbPolyline
 90
        2
 70
     0
 10
5478.588379
 20
887.011475
 10
5486.126465
 20
894.549805
  0
LWPOLYLINE
  5
458
100
AcDbEntity
  8
LAYER01
370
    13
390
0
  6
Continuous
 62
   213
100
AcDbPolyline
 90
        2
 70
     0
 10
5478.588379
 20
891.501709
 10
5481.636719
 20
894.549805
  0
LWPOLYLINE
  5
459
100
AcDbEntity
  8
LAYER01
370
    13
390
0
  6
Continuous
 62
   213
100
AcDbPolyline
 90
        2
 70
     0
 10
5484.597168
 20
879.549805
 10
5488.588379
 20
883.541016
  0
LWPOLYLINE
  5
45A
100
AcDbEntity
  8
LAYER01
370
    13
390
0
  6
Continuous
 62
   213
100
AcDbPolyline
 90
        2
 70
     0
 10
5488.588379
 20
883.930664
 10
5478.588379
 20
893.930664
  0
LWPOLYLINE
  5
45B
100
AcDbEntity
  8
LAYER01
370
    13
390
0
  6
Continuous
 62
   213
100
AcDbPolyline
 90
        2
 70
     0
 10
5488.479004
 20
879.549805
 10
5478.588379
 20
889.44043
  0
LWPOLYLINE
  5
45C
100
AcDbEntity
  8
LAYER01
370
    13
390
0
  6
Continuous
 62
   213
100
AcDbPolyline
 90
        2
 70
     0
 10
5483.98877
 20
879.549805
 10
5478.588379
 20
884.950439
  0
LWPOLYLINE
  5
45D
100
AcDbEntity
  8
LAYER01
370
    13
390
0
  6
Continuous
 62
   213
100
AcDbPolyline
 90
        2
 70
     0
 10
5479.499023
 20
879.549805
 10
5478.588379
 20
880.460205
  0
LWPOLYLINE
  5
45E
100
AcDbEntity
  8
LAYER01
370
    13
390
0
  6
Continuous
 62
   213
100
AcDbPolyline
 90
        2
 70
     0
 10
5488.588379
 20
888.420654
 10
5482.459473
 20
894.549805
  0
LWPOLYLINE
  5
45F
100
AcDbEntity
  8
LAYER01
370
    13
390
0
  6
Continuous
 62
   213
100
AcDbPolyline
 90
        2
 70
     0
 10
5488.588379
 20
892.910889
 10
5486.949219
 20
894.549805
  0
ENDBLK
  5
460
100
AcDbEntity
  8
0
390
0
100
AcDbBlockEnd
  0
BLOCK
  5
46C
100
AcDbEntity
  8
0
390
0
100
AcDbBlockBegin
  2
HATCH-CN_U_84
 70
     0
 10
0.0
 20
0.0
 30
0.0
  3
HATCH-CN_U_84
  1

  0
LWPOLYLINE
  5
46D
100
AcDbEntity
  8
LAYER01
370
    13
390
0
  6
Continuous
 62
   213
100
AcDbPolyline
 90
        3
 70
     0
 10
5487.541992
 20
904.291016
 10
5486.473145
 20
905.359863
 10
5480.536621
 20
911.296143
  0
LWPOLYLINE
  5
46E
100
AcDbEntity
  8
LAYER01
370
    13
390
0
  6
Continuous
 62
   213
100
AcDbPolyline
 90
        3
 70
     0
 10
5486.391602
 20
903.196533
 10
5484.228027
 20
905.359863
 10
5479.442871
 20
910.145264
  0
LWPOLYLINE
  5
46F
100
AcDbEntity
  8
LAYER01
370
    13
390
0
  6
Continuous
 62
   213
100
AcDbPolyline
 90
        3
 70
     0
 10
5484.853516
 20
902.489502
 10
5481.98291
 20
905.359863
 10
5478.734863
 20
908.60791
  0
LWPOLYLINE
  5
470
100
AcDbEntity
  8
LAYER01
370
    13
390
0
  6
Continuous
 62
   213
100
AcDbPolyline
 90
        3
 70
     0
 10
5482.70166
 20
902.395996
 10
5479.737793
 20
905.359863
 10
5478.642578
 20
906.455078
  0
LWPOLYLINE
  5
471
100
AcDbEntity
  8
LAYER01
370
    13
390
0
  6
Continuous
 62
   213
100
AcDbPolyline
 90
        2
 70
     0
 10
5488.314941
 20
905.762939
 10
5482.008789
 20
912.069092
  0
LWPOLYLINE
  5
472
100
AcDbEntity
  8
LAYER01
370
    13
390
0
  6
Continuous
 62
   213
100
AcDbPolyline
 90
        2
 70
     0
 10
5488.542969
 20
907.780273
 10
5484.026367
 20
912.296875
  0
LWPOLYLINE
  5
473
100
AcDbEntity
  8
LAYER01
370
    13
390
0
  6
Continuous
 62
   213
100
AcDbPolyline
 90
        3
 70
     0
 10
5487.551758
 20
910.336914
 10
5482.574707
 20
905.359863
 10
5480.548828
 20
903.333984
  0
LWPOLYLINE
  5
474
100
AcDbEntity
  8
LAYER01
370
    13
390
0
  6
Continuous
 62
   213
100
AcDbPolyline
 90
        3
 70
     0
 10
5488.320801
 20
908.86084
 10
5484.819336
 20
905.359863
 10
5482.024414
 20
902.564209
  0
LWPOLYLINE
  5
475
100
AcDbEntity
  8
LAYER01
370
    13
390
0
  6
Continuous
 62
   213
100
AcDbPolyline
 90
        3
 70
     0
 10
5488.540527
 20
906.835449
 10
5487.064453
 20
905.359863
 10
5484.048828
 20
902.344238
  0
LWPOLYLINE
  5
476
100
AcDbEntity
  8
LAYER01
370
    13
390
0
  6
Continuous
 62
   213
100
AcDbPolyline
 90
        3
 70
     0
 10
5486.403809
 20
911.434082
 10
5480.32959
 20
905.359863
 10
5479.451172
 20
904.481201
  0
LWPOLYLINE
  5
477
100
AcDbEntity
  8
LAYER01
370
    13
390
0
  6
Continuous
 62
   213
100
AcDbPolyline
 90
        2
 70
     0
 10
5484.870605
 20
912.145752
 10
5478.740234
 20
906.015381
  0
LWPOLYLINE
  5
478
100
AcDbEntity
  8
LAYER01
370
    13
390
0
  6
Continuous
 62
   213
100
AcDbPolyline
 90
        2
 70
     0
 10
5482.728027
 20
912.248291
 10
5478.638184
 20
908.158691
  0
ENDBLK
  5
479
100
AcDbEntity
  8
0
390
0
100
AcDbBlockEnd
  0
BLOCK
  5
486
100
AcDbEntity
  8
0
390
0
100
AcDbBlockBegin
  2
HATCH-CO_U_84
 70
     0
 10
0.0
 20
0.0
 30
0.0
  3
HATCH-CO_U_84
  1

  0
LWPOLYLINE
  5
487
100
AcDbEntity
  8
LAYER01
370
    13
390
0
  6
Continuous
 62
   213
100
AcDbPolyline
 90
        2
 70
     0
 10
5511.519043
 20
870.049805
 10
5508.964355
 20
872.604492
  0
LWPOLYLINE
  5
488
100
AcDbEntity
  8
LAYER01
370
    13
390
0
  6
Continuous
 62
   213
100
AcDbPolyline
 90
        2
 70
     0
 10
5492.583008
 20
888.98584
 10
5490.153809
 20
891.415283
  0
LWPOLYLINE
  5
489
100
AcDbEntity
  8
LAYER01
370
    13
390
0
  6
Continuous
 62
   213
100
AcDbPolyline
 90
        2
 70
     0
 10
5510.229004
 20
866.849854
 10
5507.144531
 20
869.934326
  0
LWPOLYLINE
  5
48A
100
AcDbEntity
  8
LAYER01
370
    13
390
0
  6
Continuous
 62
   213
100
AcDbPolyline
 90
        2
 70
     0
 10
5490.788086
 20
886.290527
 10
5488.588379
 20
888.490479
  0
LWPOLYLINE
  5
48B
100
AcDbEntity
  8
LAYER01
370
    13
390
0
  6
Continuous
 62
   213
100
AcDbPolyline
 90
        2
 70
     0
 10
5490.788086
 20
881.800293
 10
5488.588379
 20
884.000244
  0
LWPOLYLINE
  5
48C
100
AcDbEntity
  8
LAYER01
370
    13
390
0
  6
Continuous
 62
   213
100
AcDbPolyline
 90
        2
 70
     0
 10
5490.788086
 20
877.310303
 10
5488.548828
 20
879.549805
  0
LWPOLYLINE
  5
48D
100
AcDbEntity
  8
LAYER01
370
    13
390
0
  6
Continuous
 62
   213
100
AcDbPolyline
 90
        2
 70
     0
 10
5494.515625
 20
869.093018
 10
5488.588379
 20
875.02002
  0
LWPOLYLINE
  5
48E
100
AcDbEntity
  8
LAYER01
370
    13
390
0
  6
Continuous
 62
   213
100
AcDbPolyline
 90
        2
 70
     0
 10
5485.558594
 20
878.049805
 10
5484.17334
 20
879.434814
  0
LWPOLYLINE
  5
48F
100
AcDbEntity
  8
LAYER01
370
    13
390
0
  6
Continuous
 62
   213
100
AcDbPolyline
 90
        2
 70
     0
 10
5492.268555
 20
866.849854
 10
5490.188477
 20
868.929932
  0
LWPOLYLINE
  5
490
100
AcDbEntity
  8
LAYER01
370
    13
390
0
  6
Continuous
 62
   213
100
AcDbPolyline
 90
        2
 70
     0
 10
5487.568359
 20
871.549805
 10
5486.068359
 20
873.049805
  0
LWPOLYLINE
  5
491
100
AcDbEntity
  8
LAYER01
370
    13
390
0
  6
Continuous
 62
   213
100
AcDbPolyline
 90
        2
 70
     0
 10
5485.288086
 20
873.829834
 10
5485.114258
 20
874.003906
  0
LWPOLYLINE
  5
492
100
AcDbEntity
  8
LAYER01
370
    13
390
0
  6
Continuous
 62
   213
100
AcDbPolyline
 90
        2
 70
     0
 10
5514.509277
 20
871.549805
 10
5510.388184
 20
875.670654
  0
LWPOLYLINE
  5
493
100
AcDbEntity
  8
LAYER01
370
    13
390
0
  6
Continuous
 62
   213
100
AcDbPolyline
 90
        2
 70
     0
 10
5494.309082
 20
891.75
 10
5491.709473
 20
894.349854
  0
LWPOLYLINE
  5
494
100
AcDbEntity
  8
LAYER01
370
    13
390
0
  6
Continuous
 62
   213
100
AcDbPolyline
 90
        2
 70
     0
 10
5513.043945
 20
877.505371
 10
5510.388184
 20
880.160889
  0
LWPOLYLINE
  5
495
100
AcDbEntity
  8
LAYER01
370
    13
390
0
  6
Continuous
 62
   213
100
AcDbPolyline
 90
        2
 70
     0
 10
5517.14209
 20
877.897217
 10
5515.489746
 20
879.549805
  0
LWPOLYLINE
  5
496
100
AcDbEntity
  8
LAYER01
370
    13
390
0
  6
Continuous
 62
   213
100
AcDbPolyline
 90
        2
 70
     0
 10
5512.588379
 20
882.450928
 10
5510.388184
 20
884.650879
  0
LWPOLYLINE
  5
497
100
AcDbEntity
  8
LAYER01
370
    13
390
0
  6
Continuous
 62
   213
100
AcDbPolyline
 90
        2
 70
     0
 10
5512.588379
 20
886.941162
 10
5506.248535
 20
893.281006
  0
LWPOLYLINE
  5
498
100
AcDbEntity
  8
LAYER01
370
    13
390
0
  6
Continuous
 62
   213
100
AcDbPolyline
 90
        2
 70
     0
 10
5510.988281
 20
893.03125
 10
5509.669922
 20
894.349854
  0
ENDBLK
  5
499
100
AcDbEntity
  8
0
390
0
100
AcDbBlockEnd
  0
BLOCK
  5
4A4
100
AcDbEntity
  8
0
390
0
100
AcDbBlockBegin
  2
_BOHR_FV_U_84
 70
     0
 10
0.0
 20
0.0
 30
0.0
  3
_BOHR_FV_U_84
  1

  0
LWPOLYLINE
  5
4A5
100
AcDbEntity
  8
LAYER21
370
    13
390
0
  6
Continuous
 62
   213
100
AcDbPolyline
 90
        4
 70
     1
 10
4.044922
 20
0.0
 10
-4.044922
 20
0.0
 10
-4.044922
 20
3.200073
 10
4.044922
 20
3.199951
  0
LWPOLYLINE
  5
4A6
100
AcDbEntity
  8
LAYER21
370
    13
390
0
  6
Continuous
 62
   213
100
AcDbPolyline
 90
        8
 70
     1
 10
2.022461
 20
0.4375
 10
1.732666
 20
0.327637
 42
-0.183284
 10
-1.732666
 20
0.327637
 10
-2.022461
 20
0.4375
 10
-2.022461
 20
2.762573
 10
-1.734619
 20
2.871704
 42
-0.183491
 10
1.734131
 20
2.870117
 10
2.017578
 20
2.762451
  0
LWPOLYLINE
  5
4A7
100
AcDbEntity
  8
LAYER21
370
    13
390
0
  6
Continuous
 62
   213
100
AcDbPolyline
 90
        8
 70
     1
 10
-2.017578
 20
0.4375
 10
-2.361572
 20
0.247925
 42
-0.258411
 10
-3.704102
 20
0.250732
 10
-4.040039
 20
0.4375
 10
-4.040039
 20
2.762573
 10
-3.704102
 20
2.949463
 42
-0.258411
 10
-2.361572
 20
2.952271
 10
-2.017578
 20
2.762451
  0
LWPOLYLINE
  5
4A8
100
AcDbEntity
  8
LAYER21
370
    13
390
0
  6
Continuous
 62
   213
100
AcDbPolyline
 90
        8
 70
     1
 10
4.049805
 20
0.4375
 10
3.705566
 20
0.247925
 42
-0.258411
 10
2.363281
 20
0.25061
 10
2.027344
 20
0.4375
 10
2.027344
 20
2.762573
 10
2.363281
 20
2.949463
 42
-0.258411
 10
3.705566
 20
2.952148
 10
4.049805
 20
2.762451
  0
LWPOLYLINE
  5
4A9
100
AcDbEntity
  8
LAYER21
370
    13
390
0
  6
Continuous
 62
   213
100
AcDbPolyline
 90
        2
 70
     0
 10
2.022461
 20
0.4375
 10
2.022461
 20
2.762451
  0
LWPOLYLINE
  5
4AA
100
AcDbEntity
  8
LAYER21
370
    13
390
0
  6
Continuous
 62
   213
100
AcDbPolyline
 90
        2
 70
     0
 10
-2.022461
 20
0.4375
 10
-2.022461
 20
2.762451
  0
LWPOLYLINE
  5
4AB
100
AcDbEntity
  8
LAYER21
370
    13
390
0
  6
Continuous
 62
   213
100
AcDbPolyline
 90
        2
 70
     0
 10
0.0
 20
3.529541
 10
0.0
 20
-0.32959
  0
LWPOLYLINE
  5
4AC
100
AcDbEntity
  8
LAYER21
370
    13
390
0
  6
Continuous
 62
   213
100
AcDbPolyline
 90
        5
 70
     1
 10
2.002441
 20
0.0
 10
2.002441
 20
-23.324219
 10
0.0
 20
-30.0
 10
-2.002441
 20
-23.324219
 10
-2.002441
 20
0.0
  0
LWPOLYLINE
  5
4AD
100
AcDbEntity
  8
LAYER21
370
    13
390
0
  6
Continuous
 62
   213
100
AcDbPolyline
 90
        2
 70
     0
 10
0.0
 20
9.7771
 10
0.0
 20
-44.111328
  0
ENDBLK
  5
4AE
100
AcDbEntity
  8
0
390
0
100
AcDbBlockEnd
  0
BLOCK
  5
4B3
100
AcDbEntity
  8
0
390
0
100
AcDbBlockBegin
  2
_D---BOP_U_84
 70
     0
 10
0.0
 20
0.0
 30
0.0
  3
_D---BOP_U_84
  1

  0
LWPOLYLINE
  5
4B4
100
AcDbEntity
  8
LAYER01
370
    18
390
0
  6
Continuous
 62
     7
100
AcDbPolyline
 90
        2
 70
     0
 10
5522.468262
 20
748.849854
 10
5522.468262
 20
719.495605
  0
LWPOLYLINE
  5
4B5
100
AcDbEntity
  8
LAYER01
370
    18
390
0
  6
Continuous
 62
     7
100
AcDbPolyline
 90
        2
 70
     0
 10
5494.468262
 20
748.849854
 10
5494.468262
 20
719.495605
  0
LWPOLYLINE
  5
4B6
100
AcDbEntity
  8
LAYER01
370
    18
390
0
  6
Continuous
 62
     7
100
AcDbPolyline
 90
        2
 70
     0
 10
5517.468262
 20
721.495605
 10
5499.468262
 20
721.495605
  0
LWPOLYLINE
  5
4B7
102
{ACAD_REACTORS
330
4B8
102
}
100
AcDbEntity
  8
HATCH_REACTORS
390
0
100
AcDbPolyline
 90
        3
 70
     1
 10
5517.46875
 20
720.662354
 10
5517.46875
 20
722.328857
 10
5522.46875
 20
721.495605
  0
HATCH
  5
4B8
100
AcDbEntity
  8
LAYER01
370
     5
390
0
  6
Continuous
 62
     7
100
AcDbHatch
 10
0.0
 20
0.0
 30
0.0
210
0.0
220
0.0
230
1.0
  2
_L-O---1
 70
     1
 71
     1
 91
        1
 92
        2
 72
     0
 73
     1
 93
        3
 10
5517.46875
 20
720.662353515625
 10
5517.46875
 20
722.328857421875
 10
5522.46875
 20
721.49560546875
 97
        1
330
4B7
 75
     0
 76
     0
 98
        0
  0
LWPOLYLINE
  5
4B9
102
{ACAD_REACTORS
330
4BA
102
}
100
AcDbEntity
  8
HATCH_REACTORS
390
0
100
AcDbPolyline
 90
        3
 70
     1
 10
5499.46875
 20
720.662354
 10
5494.46875
 20
721.495605
 10
5499.46875
 20
722.328857
  0
HATCH
  5
4BA
100
AcDbEntity
  8
LAYER01
370
     5
390
0
  6
Continuous
 62
     7
100
AcDbHatch
 10
0.0
 20
0.0
 30
0.0
210
0.0
220
0.0
230
1.0
  2
_L-O---1
 70
     1
 71
     1
 91
        1
 92
        2
 72
     0
 73
     1
 93
        3
 10
5499.46875
 20
720.662353515625
 10
5494.46875
 20
721.49560546875
 10
5499.46875
 20
722.328857421875
 97
        1
330
4B9
 75
     0
 76
     0
 98
        0
  0
INSERT
  5
4BF
100
AcDbEntity
  8
LAYER01
390
0
100
AcDbBlockReference
  2
IT5E11___U_84
 10
5508.468262
 20
725.995605
 30
0.0
  0
ENDBLK
  5
4C0
100
AcDbEntity
  8
0
390
0
100
AcDbBlockEnd
  0
BLOCK
  5
4BC
100
AcDbEntity
  8
0
390
0
100
AcDbBlockBegin
  2
IT5E11___U_84
 70
     0
 10
0.0
 20
0.0
 30
0.0
  3
IT5E11___U_84
  1

  0
MTEXT
  5
4BD
100
AcDbEntity
  8
LAYER01
390
0
  6
Continuous
 62
     7
100
AcDbMText
 10
-6.104431
 20
0.0
 30
0.0
 40
3.24
 41
0.0
 71
     7
 72
     1
  1
{\fArial|b0|i0|c12|p0;15mm}
 73
     1
 44
1.333333
  0
ENDBLK
  5
4BE
100
AcDbEntity
  8
0
390
0
100
AcDbBlockEnd
  0
BLOCK
  5
4C3
100
AcDbEntity
  8
0
390
0
100
AcDbBlockBegin
  2
_D---BOQ_U_84
 70
     0
 10
0.0
 20
0.0
 30
0.0
  3
_D---BOQ_U_84
  1

  0
LWPOLYLINE
  5
4C4
100
AcDbEntity
  8
LAYER01
370
    18
390
0
  6
Continuous
 62
     7
100
AcDbPolyline
 90
        2
 70
     0
 10
5514.968262
 20
784.849854
 10
5544.322754
 20
784.849854
  0
LWPOLYLINE
  5
4C5
100
AcDbEntity
  8
LAYER01
370
    18
390
0
  6
Continuous
 62
     7
100
AcDbPolyline
 90
        2
 70
     0
 10
5514.968262
 20
759.849854
 10
5544.322754
 20
759.849854
  0
LWPOLYLINE
  5
4C6
100
AcDbEntity
  8
LAYER01
370
    18
390
0
  6
Continuous
 62
     7
100
AcDbPolyline
 90
        2
 70
     0
 10
5542.322754
 20
779.849854
 10
5542.322754
 20
764.849854
  0
LWPOLYLINE
  5
4C7
102
{ACAD_REACTORS
330
4C8
102
}
100
AcDbEntity
  8
HATCH_REACTORS
390
0
100
AcDbPolyline
 90
        3
 70
     1
 10
5543.155762
 20
779.849854
 10
5541.489258
 20
779.849854
 10
5542.322754
 20
784.849854
  0
HATCH
  5
4C8
100
AcDbEntity
  8
LAYER01
370
     5
390
0
  6
Continuous
 62
     7
100
AcDbHatch
 10
0.0
 20
0.0
 30
0.0
210
0.0
220
0.0
230
1.0
  2
_L-O---1
 70
     1
 71
     1
 91
        1
 92
        2
 72
     0
 73
     1
 93
        3
 10
5543.15576171875
 20
779.849853515625
 10
5541.4892578125
 20
779.849853515625
 10
5542.32275390625
 20
784.849853515625
 97
        1
330
4C7
 75
     0
 76
     0
 98
        0
  0
LWPOLYLINE
  5
4C9
102
{ACAD_REACTORS
330
4CA
102
}
100
AcDbEntity
  8
HATCH_REACTORS
390
0
100
AcDbPolyline
 90
        3
 70
     1
 10
5543.155762
 20
764.849854
 10
5542.322754
 20
759.849854
 10
5541.489258
 20
764.849854
  0
HATCH
  5
4CA
100
AcDbEntity
  8
LAYER01
370
     5
390
0
  6
Continuous
 62
     7
100
AcDbHatch
 10
0.0
 20
0.0
 30
0.0
210
0.0
220
0.0
230
1.0
  2
_L-O---1
 70
     1
 71
     1
 91
        1
 92
        2
 72
     0
 73
     1
 93
        3
 10
5543.15576171875
 20
764.849853515625
 10
5542.32275390625
 20
759.849853515625
 10
5541.4892578125
 20
764.849853515625
 97
        1
330
4C9
 75
     0
 76
     0
 98
        0
  0
INSERT
  5
4CF
100
AcDbEntity
  8
LAYER01
390
0
100
AcDbBlockReference
  2
IT5E11___U_842
 10
5537.822754
 20
772.349854
 30
0.0
 50
90.0
  0
LWPOLYLINE
  5
4D0
100
AcDbEntity
  8
LAYER01
370
    18
390
0
  6
Continuous
 62
     7
100
AcDbPolyline
 90
        2
 70
     0
 10
5514.968262
 20
753.849854
 10
5544.322754
 20
753.849854
  0
LWPOLYLINE
  5
4D1
100
AcDbEntity
  8
LAYER01
370
    18
390
0
  6
Continuous
 62
     7
100
AcDbPolyline
 90
        2
 70
     0
 10
5542.322754
 20
759.849854
 10
5542.322754
 20
753.849854
  0
LWPOLYLINE
  5
4D2
102
{ACAD_REACTORS
330
4D3
102
}
100
AcDbEntity
  8
HATCH_REACTORS
390
0
100
AcDbPolyline
 90
        3
 70
     1
 10
5541.489258
 20
748.849854
 10
5542.322754
 20
753.849854
 10
5543.155762
 20
748.849854
  0
HATCH
  5
4D3
100
AcDbEntity
  8
LAYER01
370
     5
390
0
  6
Continuous
 62
     7
100
AcDbHatch
 10
0.0
 20
0.0
 30
0.0
210
0.0
220
0.0
230
1.0
  2
_L-O---1
 70
     1
 71
     1
 91
        1
 92
        2
 72
     0
 73
     1
 93
        3
 10
5541.4892578125
 20
748.849853515625
 10
5542.32275390625
 20
753.849853515625
 10
5543.15576171875
 20
748.849853515625
 97
        1
330
4D2
 75
     0
 76
     0
 98
        0
  0
INSERT
  5
4D8
100
AcDbEntity
  8
LAYER01
390
0
100
AcDbBlockReference
  2
IT5E11___U_843
 10
5537.822754
 20
757.0
 30
0.0
 50
90.0
  0
ENDBLK
  5
4D9
100
AcDbEntity
  8
0
390
0
100
AcDbBlockEnd
  0
BLOCK
  5
4CC
100
AcDbEntity
  8
0
390
0
100
AcDbBlockBegin
  2
IT5E11___U_842
 70
     0
 10
0.0
 20
0.0
 30
0.0
  3
IT5E11___U_842
  1

  0
MTEXT
  5
4CD
100
AcDbEntity
  8
LAYER01
390
0
  6
Continuous
 62
     7
100
AcDbMText
 10
-6.104492
 20
0.0
 30
0.0
 40
3.24
 41
0.0
 71
     7
 72
     1
  1
{\fArial|b0|i0|c12|p0;15mm}
 11
1.0
 21
0.0
 31
0.0
 73
     1
 44
1.333333
  0
ENDBLK
  5
4CE
100
AcDbEntity
  8
0
390
0
100
AcDbBlockEnd
  0
BLOCK
  5
4D5
100
AcDbEntity
  8
0
390
0
100
AcDbBlockBegin
  2
IT5E11___U_843
 70
     0
 10
0.0
 20
0.0
 30
0.0
  3
IT5E11___U_843
  1

  0
MTEXT
  5
4D6
100
AcDbEntity
  8
LAYER01
390
0
  6
Continuous
 62
     7
100
AcDbMText
 10
-4.876099
 20
0.0
 30
0.0
 40
3.24
 41
0.0
 71
     7
 72
     1
  1
{\fArial|b0|i0|c12|p0;5mm}
 11
1.0
 21
0.0
 31
0.0
 73
     1
 44
1.333333
  0
ENDBLK
  5
4D7
100
AcDbEntity
  8
0
390
0
100
AcDbBlockEnd
  0
BLOCK
  5
4DC
100
AcDbEntity
  8
0
390
0
100
AcDbBlockBegin
  2
T-ACHTER_U_84
 70
     0
 10
0.0
 20
0.0
 30
0.0
  3
T-ACHTER_U_84
  1

  0
MTEXT
  5
4DD
100
AcDbEntity
  8
LAYER127
390
0
  6
Continuous
 62
     7
100
AcDbMText
 10
0.0
 20
11.666626
 30
0.0
 40
4.5
 41
0.0
 71
     7
 72
     1
  1
{\fArial|b0|i0|c12|p0;* BIJ OPEN GEVELSYSTEMEN OP ALUMINIUM ACHTERCONSTRUCTIE}
 73
     1
 44
1.333333
  0
MTEXT
  5
4DF
100
AcDbEntity
  8
LAYER127
390
0
  6
Continuous
 62
     7
100
AcDbMText
 10
0.0
 20
1.666626
 30
0.0
 40
4.5
 41
0.0
 71
     7
 72
     1
  1
{\fArial|b0|i0|c12|p0;  ADVISEERT ROCKPANEL EEN SPOUWDIEPTE VAN TENMINSTE  60 MM}
 73
     1
 44
1.333333
  0
ENDBLK
  5
4E0
100
AcDbEntity
  8
0
390
0
100
AcDbBlockEnd
  0
BLOCK
  5
4E3
100
AcDbEntity
  8
0
390
0
100
AcDbBlockBegin
  2
T-ROCKP__U_M_84
 70
     0
 10
0.0
 20
0.0
 30
0.0
  3
T-ROCKP__U_M_84
  1

  0
MTEXT
  5
4E4
100
AcDbEntity
  8
LAYER01
390
0
  6
Continuous
 62
     7
100
AcDbMText
 10
53.4552
 20
-1.666626
 30
0.0
 40
4.5
 41
0.0
 71
     7
 72
     1
  1
{\fArial|b0|i0|c12|p0;ROCKPANEL 8MM}
 11
-1.0
 21
0.0
 31
0.0
 73
     1
 44
1.333333
  0
ENDBLK
  5
4E5
100
AcDbEntity
  8
0
390
0
100
AcDbBlockEnd
  0
BLOCK
  5
4E8
100
AcDbEntity
  8
0
390
0
100
AcDbBlockBegin
  2
T-VENTIL_U_84
 70
     0
 10
0.0
 20
0.0
 30
0.0
  3
T-VENTIL_U_84
  1

  0
MTEXT
  5
4E9
100
AcDbEntity
  8
LAYER127
390
0
  6
Continuous
 62
     7
100
AcDbMText
 10
0.0
 20
1.666626
 30
0.0
 40
4.5
 41
0.0
 71
     7
 72
     1
  1
{\fArial|b0|i0|c12|p0;VENTILATIE}
 73
     1
 44
1.333333
  0
ENDBLK
  5
4EA
100
AcDbEntity
  8
0
390
0
100
AcDbBlockEnd
  0
BLOCK
  5
514
100
AcDbEntity
  8
0
390
0
100
AcDbBlockBegin
  2
2-300____U_S_84
 70
     0
 10
0.0
 20
0.0
 30
0.0
  3
2-300____U_S_84
  1

  0
LWPOLYLINE
  5
515
102
{ACAD_REACTORS
330
516
102
}
100
AcDbEntity
  8
HATCH_REACTORS
390
0
100
AcDbPolyline
 90
        4
 70
     1
 10
253.668518
 20
-65.0
 10
253.668518
 20
0.0
 10
284.168518
 20
0.0
 10
284.168518
 20
-65.0
  0
HATCH
  5
516
100
AcDbEntity
  8
LAYER01
370
     9
390
0
  6
Continuous
 62
   205
100
AcDbHatch
 10
0.0
 20
0.0
 30
0.0
210
0.0
220
0.0
230
1.0
  2
vl-punt
 70
     0
 71
     1
 91
        1
 92
        2
 72
     0
 73
     1
 93
        4
 10
253.66851806640625
 20
-65.0
 10
253.66851806640625
 20
0.0
 10
284.16851806640625
 20
0.0
 10
284.16851806640625
 20
-65.0
 97
        1
330
515
 75
     0
 76
     0
 52
0.0
 41
1.0
 77
     0
 78
     8
 53
45.0
 43
-1505.567017
 44
-946.411682
 45
0.0000003371747823
 46
6.0
 79
     2
 49
0.307115
 49
-8.178166
 53
315.0
 43
-1505.349854
 44
-946.194519
 45
11.999999046325684
 46
-5.9999995231628418
 79
     2
 49
0.307115
 49
-8.178166
 53
225.0
 43
-1505.13269
 44
-946.411682
 45
11.999999046325684
 46
5.9999995231628418
 79
     2
 49
0.307115
 49
-8.178166
 53
135.0
 43
-1505.349854
 44
-946.628845
 45
0.0000003371747823
 46
-6.0
 79
     2
 49
0.307115
 49
-8.178166
 53
45.0
 43
-1502.567017
 44
-943.411682
 45
0.0000003371747823
 46
6.0
 79
     2
 49
0.307115
 49
-8.178166
 53
315.0
 43
-1502.349854
 44
-943.194519
 45
11.999999046325684
 46
-5.9999995231628418
 79
     2
 49
0.307115
 49
-8.178166
 53
225.0
 43
-1502.13269
 44
-943.411682
 45
11.999999046325684
 46
5.9999995231628418
 79
     2
 49
0.307115
 49
-8.178166
 53
135.0
 43
-1502.349854
 44
-943.628845
 45
0.0000003371747823
 46
-6.0
 79
     2
 49
0.307115
 49
-8.178166
 98
        0
  0
ENDBLK
  5
517
100
AcDbEntity
  8
0
390
0
100
AcDbBlockEnd
  0
BLOCK
  5
523
100
AcDbEntity
  8
0
390
0
100
AcDbBlockBegin
  2
KLPL2_A4_U_S_0
 70
     0
 10
0.0
 20
0.0
 30
0.0
  3
KLPL2_A4_U_S_0
  1

  0
LWPOLYLINE
  5
524
100
AcDbEntity
  8
LAYER98
370
    18
390
0
  6
Continuous
 62
     7
100
AcDbPolyline
 90
        4
 70
     1
 10
-179.999985
 20
190.0
 10
97.0
 20
190.0
 10
97.0
 20
0.0
 10
-179.999985
 20
0.0
  0
LWPOLYLINE
  5
525
100
AcDbEntity
  8
LAYER98
370
    25
390
0
  6
DOT
 62
     8
100
AcDbPolyline
 90
        2
 70
     0
 10
107.0
 20
200.0
 10
105.366943
 20
198.845459
  0
LWPOLYLINE
  5
526
100
AcDbEntity
  8
LAYER98
370
    25
390
0
  6
DOT
 62
     8
100
AcDbPolyline
 90
        2
 70
     0
 10
-189.999985
 20
200.0
 10
-188.366928
 20
198.845215
  0
LWPOLYLINE
  5
527
100
AcDbEntity
  8
LAYER98
370
    25
390
0
  6
DOT
 62
     8
100
AcDbPolyline
 90
        2
 70
     0
 10
-189.999985
 20
-10.0
 10
-188.366928
 20
-8.845215
  0
LWPOLYLINE
  5
528
100
AcDbEntity
  8
LAYER98
370
    25
390
0
  6
DOT
 62
     8
100
AcDbPolyline
 90
        2
 70
     0
 10
107.0
 20
-10.0
 10
105.366943
 20
-8.845459
  0
LWPOLYLINE
  5
529
100
AcDbEntity
  8
LAYER98
370
    35
390
0
  6
Continuous
 62
   134
100
AcDbPolyline
 90
        2
 70
     0
 10
-149.800034
 20
190.0
 10
-149.800034
 20
0.0
  0
ENDBLK
  5
52A
100
AcDbEntity
  8
0
390
0
100
AcDbBlockEnd
  0
BLOCK
  5
52D
100
AcDbEntity
  8
0
390
0
100
AcDbBlockBegin
  2
KLPL2_A4_U_T_0
 70
     0
 10
0.0
 20
0.0
 30
0.0
  3
KLPL2_A4_U_T_0
  1

  0
MTEXT
  5
52E
100
AcDbEntity
  8
LAYER98
390
0
  6
Continuous
 62
     7
100
AcDbMText
 10
-156.866714
 20
177.800049
 30
0.0
 40
4.5
 41
0.0
 71
     7
 72
     1
  1
{\fArial|b0|i0|c12|p0;DETAIL 2-300}
 11
0.0
 21
-1.0
 31
0.0
 73
     1
 44
1.333333
  0
MTEXT
  5
52F
100
AcDbEntity
  8
LAYER98
390
0
  6
Continuous
 62
     7
100
AcDbMText
 10
-164.416718
 20
177.800049
 30
0.0
 40
3.15
 41
0.0
 71
     7
 72
     1
  1
{\fArial|b0|i0|c12|p0;horizontale kozijnaansluiting}
 11
0.0
 21
-1.0
 31
0.0
 73
     1
 44
1.333333
  0
MTEXT
  5
530
100
AcDbEntity
  8
LAYER98
390
0
  6
Continuous
 62
     7
100
AcDbMText
 10
-169.966721
 20
177.800049
 30
0.0
 40
3.15
 41
0.0
 71
     7
 72
     1
  1
{\fArial|b0|i0|c12|p0;met Rockpanel dagkant}
 11
0.0
 21
-1.0
 31
0.0
 73
     1
 44
1.333333
  0
MTEXT
  5
531
100
AcDbEntity
  8
LAYER98
390
0
  6
Continuous
 62
     7
100
AcDbMText
 10
-175.516663
 20
177.800049
 30
0.0
 40
3.15
 41
0.0
 71
     7
 72
     1
  1
{\fArial|b0|i0|c12|p0;op aluminium draagconstructie}
 11
0.0
 21
-1.0
 31
0.0
 73
     1
 44
1.333333
  0
ENDBLK
  5
532
100
AcDbEntity
  8
0
390
0
100
AcDbBlockEnd
  0
ENDSEC
  0
SECTION
  2
ENTITIES
  0
IMAGE
  5
51D
100
AcDbEntity
  8
LAYER98
390
0
 92
      140
310
0000000000000000840000000600000005000000000000209AF9664000000080FDEB6F400000000000000000000000209AF96640894CC33655E5754000000000000000000000002000C06A40894CC33655E5754000000000000000000000002000C06A40FFFFFF7FFDEB6F400000000000000000000000209AF96640FFFFFF
310
7FFDEB6F400000000000000000
100
AcDbRasterImage
 90
        0
 10
183.800064
 20
255.374695
 30
0.0
 11
0.077835
 21
0.0
 31
0.0
 12
0.0
 22
0.077835
 32
0.0
 13
388.0
 23
1220.0
340
521
 70
     7
280
     0
281
    50
282
    50
283
     0
360
520
 71
     1
 91
        2
 14
-0.5
 24
-0.5
 14
387.5
 24
1219.5
  0
VIEWPORT
  5
28
100
AcDbEntity
 67
     1
  8
0
390
0
100
AcDbViewport
 10
0.0
 20
0.0
 30
0.0
 40
1.0
 41
1.0
 68
     0
 69
     1
 12
76.25
 22
45.0
 13
0.0
 23
0.0
 14
0.5
 24
0.5
 15
0.5
 25
0.5
 16
0.0
 26
0.0
 36
1.0
 17
0.0
 27
0.0
 37
0.0
 42
50.0
 43
0.0
 44
0.0
 45
1064.000052
 50
0.0
 51
0.0
 72
   100
 90
    32800
340
0
  1

281
     0
 71
     0
 74
     1
110
0.0
120
0.0
130
0.0
111
1.0
121
0.0
131
0.0
112
0.0
122
1.0
132
0.0
345
0
346
0
 79
     0
146
0.0
  0
LWPOLYLINE
  5
51B
100
AcDbEntity
 67
     1
  8
0
390
0
100
AcDbPolyline
 90
        4
 70
     1
 10
-62.999985
 20
160.333313
 10
-62.999985
 20
350.333313
 10
183.800049
 20
350.333313
 10
183.800049
 20
160.333313
  0
VIEWPORT
  5
51C
100
AcDbEntity
 67
     1
  8
LAYER98
390
0
100
AcDbViewport
 10
60.400032
 20
255.333313
 30
0.0
 40
246.800034
 41
190.0
 68
     2
 69
     2
 12
0.0
 22
0.0
 13
0.0
 23
0.0
 14
0.5
 24
0.5
 15
0.5
 25
0.5
 16
0.0
 26
0.0
 36
1.0
 17
-1435.78772
 27
-1015.980438
 37
0.0
 42
50.0
 43
0.0
 44
0.0
 45
380.0
 50
0.0
 51
0.0
 72
   100
 90
    65536
340
51B
  1

281
     0
 71
     0
 74
     1
110
0.0
120
0.0
130
0.0
111
1.0
121
0.0
131
0.0
112
0.0
122
1.0
132
0.0
345
0
346
0
 79
     0
146
0.0
  0
INSERT
  5
52B
100
AcDbEntity
 67
     1
  8
LAYER98
390
0
100
AcDbBlockReference
  2
KLPL2_A4_U_S_0
 10
34.000015
 20
350.333313
 30
0.0
 50
180.0
  0
INSERT
  5
533
100
AcDbEntity
 67
     1
  8
LAYER98
390
0
100
AcDbBlockReference
  2
KLPL2_A4_U_T_0
 10
34.000015
 20
350.333313
 30
0.0
 50
180.0
  0
INSERT
  5
51A
100
AcDbEntity
  8
LAYER98
390
0
100
AcDbBlockReference
  2
DET-DUI2_84
 10
0.0
 20
0.0
 30
0.0
  0
ENDSEC
  0
SECTION
  2
OBJECTS
  0
DICTIONARY
  5
19
100
AcDbDictionary
280
     0
281
     1
  3
ACAD_GROUP
350
1A
  3
ACAD_MLINESTYLE
350
1B
  3
ACAD_LAYOUT
350
1E
  3
ACAD_PLOTSETTINGS
350
22
  3
ACAD_PLOTSTYLENAME
350
1F
  3
ACAD_WIPEOUT_VARS
350
23
  3
ACAD_IMAGE_VARS
350
51E
  3
ACAD_IMAGE_DICT
350
51F
  0
DICTIONARY
  5
1A
102
{ACAD_REACTORS
330
19
102
}
100
AcDbDictionary
280
     0
281
     1
  0
DICTIONARY
  5
1B
102
{ACAD_REACTORS
330
19
102
}
100
AcDbDictionary
280
     0
281
     1
  3
Standard
350
1C
  0
MLINESTYLE
  5
1C
102
{ACAD_REACTORS
330
1B
102
}
100
AcDbMlineStyle
  2
Standard
 70
     0
  3

 62
     0
 51
90.0
 52
90.0
 71
     2
 49
0.5
 62
   256
  6
ByLayer
 49
-0.5
 62
   256
  6
ByLayer
  0
ACDBDICTIONARYWDFLT
  5
1F
102
{ACAD_REACTORS
330
19
102
}
100
AcDbDictionary
281
     1
  3
Normal
350
1D
100
AcDbDictionaryWithDefault
340
1D
  0
ACDBPLACEHOLDER
  5
1D
102
{ACAD_REACTORS
330
1F
102
}
  0
LAYOUT
  5
20
102
{ACAD_REACTORS
330
1E
102
}
100
AcDbPlotSettings
  1

  2

  4

  6

 40
0.0
 41
0.0
 42
0.0
 43
0.0
 44
0.0
 45
0.0
 46
0.0
 47
0.0
 48
0.0
 49
0.0
140
0.0
141
0.0
142
1.0
143
1.0
 70
  1024
 72
     0
 73
     0
 74
     0
  7

 75
     0
147
1.0
148
0.0
149
0.0
100
AcDbLayout
  1
Model
 70
     0
 71
     0
 10
0.0
 20
0.0
 11
0.0
 21
0.0
 12
0.0
 22
0.0
 32
0.0
 14
0.0
 24
0.0
 34
0.0
 15
0.0
 25
0.0
 35
0.0
146
0.0
 13
0.0
 23
0.0
 33
0.0
 16
0.0
 26
0.0
 36
0.0
 17
0.0
 27
0.0
 37
0.0
 76
     0
330
A
331
0
345
0
346
0
  0
LAYOUT
  5
21
102
{ACAD_REACTORS
330
1E
102
}
100
AcDbPlotSettings
  1

  2

  4

  6

 40
0.0
 41
0.0
 42
0.0
 43
0.0
 44
0.0
 45
0.0
 46
0.0
 47
0.0
 48
0.0
 49
0.0
140
0.0
141
0.0
142
1.0
143
1.0
 70
     0
 72
     0
 73
     0
 74
     0
  7

 75
     0
147
1.0
148
0.0
149
0.0
100
AcDbLayout
  1
Layout1
 70
     0
 71
     0
 10
0.0
 20
0.0
 11
0.0
 21
0.0
 12
0.0
 22
0.0
 32
0.0
 14
0.0
 24
0.0
 34
0.0
 15
0.0
 25
0.0
 35
0.0
146
0.0
 13
0.0
 23
0.0
 33
0.0
 16
0.0
 26
0.0
 36
0.0
 17
0.0
 27
0.0
 37
0.0
 76
     0
330
B
331
0
345
0
346
0
  0
DICTIONARY
  5
1E
102
{ACAD_REACTORS
330
19
102
}
100
AcDbDictionary
280
     0
281
     1
  3
Layout1
350
21
  3
Model
350
20
  0
DICTIONARY
  5
22
102
{ACAD_REACTORS
330
19
102
}
100
AcDbDictionary
280
     0
281
     1
  0
WIPEOUTVARIABLES
  5
23
100
AcDbWipeoutVariables
 70
     1
  0
RASTERVARIABLES
  5
51E
102
{ACAD_REACTORS
330
19
102
}
100
AcDbRasterVariables
 90
        0
 70
     1
 71
     1
 72
     0
  0
DICTIONARY
  5
51F
102
{ACAD_REACTORS
330
19
102
}
100
AcDbDictionary
280
     0
281
     1
  3
睦迷8
350
521
  0
IMAGEDEF
  5
521
102
{ACAD_REACTORS
330
51F
330
520
102
}
100
AcDbRasterImageDef
 90
        0
  1
睦迷8.PCX
 10
388.0
 20
1220.0
 11
0.352778
 21
0.352778
280
     1
281
     5
  0
IMAGEDEF_REACTOR
  5
520
100
AcDbRasterImageDefReactor
 90
        2
330
51D
  0
ENDSEC
  0
EOF
