  0
SECTION
  2
HEADER
  9
$ACADVER
  1
AC1015
  9
$ACADMAINTVER
 70
     6
  9
$DWGCODEPAGE
  3
ANSI_1252
  9
$INSBASE
 10
0.0
 20
0.0
 30
0.0
  9
$EXTMIN
 10
1.000000E+20
 20
1.000000E+20
 30
1.000000E+20
  9
$EXTMAX
 10
-1.000000E+20
 20
-1.000000E+20
 30
-1.000000E+20
  9
$LIMMIN
 10
0.0
 20
0.0
  9
$LIMMAX
 10
0.0
 20
0.0
  9
$ORTHOMODE
 70
     0
  9
$REGENMODE
 70
     1
  9
$FILLMODE
 70
     1
  9
$QTEXTMODE
 70
     0
  9
$MIRRTEXT
 70
     1
  9
$LTSCALE
 40
1.0
  9
$ATTMODE
 70
     1
  9
$TEXTSIZE
 40
0.2
  9
$TRACEWID
 40
0.05
  9
$TEXTSTYLE
  7
Standard
  9
$CLAYER
  8
0
  9
$CELTYPE
  6
Continuous
  9
$CECOLOR
 62
   256
  9
$CELTSCALE
 40
1.0
  9
$DISPSILH
 70
     0
  9
$DIMSCALE
 40
1.0
  9
$DIMASZ
 40
0.18
  9
$DIMEXO
 40
0.0625
  9
$DIMDLI
 40
0.38
  9
$DIMRND
 40
0.0
  9
$DIMDLE
 40
0.0
  9
$DIMEXE
 40
0.18
  9
$DIMTP
 40
0.0
  9
$DIMTM
 40
0.0
  9
$DIMTXT
 40
0.18
  9
$DIMCEN
 40
0.09
  9
$DIMTSZ
 40
0.0
  9
$DIMTOL
 70
     0
  9
$DIMLIM
 70
     0
  9
$DIMTIH
 70
     1
  9
$DIMTOH
 70
     1
  9
$DIMSE1
 70
     0
  9
$DIMSE2
 70
     0
  9
$DIMTAD
 70
     0
  9
$DIMZIN
 70
     0
  9
$DIMBLK
  1

  9
$DIMASO
 70
     1
  9
$DIMSHO
 70
     1
  9
$DIMPOST
  1

  9
$DIMAPOST
  1

  9
$DIMALT
 70
     0
  9
$DIMALTD
 70
     2
  9
$DIMALTF
 40
25.4
  9
$DIMLFAC
 40
1.0
  9
$DIMTOFL
 70
     0
  9
$DIMTVP
 40
0.0
  9
$DIMTIX
 70
     0
  9
$DIMSOXD
 70
     0
  9
$DIMSAH
 70
     0
  9
$DIMBLK1
  1

  9
$DIMBLK2
  1

  9
$DIMSTYLE
  2
Standard
  9
$DIMCLRD
 70
     0
  9
$DIMCLRE
 70
     0
  9
$DIMCLRT
 70
     0
  9
$DIMTFAC
 40
1.0
  9
$DIMGAP
 40
0.09
  9
$DIMJUST
 70
     0
  9
$DIMSD1
 70
     0
  9
$DIMSD2
 70
     0
  9
$DIMTOLJ
 70
     1
  9
$DIMTZIN
 70
     0
  9
$DIMALTZ
 70
     0
  9
$DIMALTTZ
 70
     0
  9
$DIMUPT
 70
     0
  9
$DIMDEC
 70
     4
  9
$DIMTDEC
 70
     4
  9
$DIMALTU
 70
     2
  9
$DIMALTTD
 70
     2
  9
$DIMTXSTY
  7
Standard
  9
$DIMAUNIT
 70
     0
  9
$DIMADEC
 70
     0
  9
$DIMALTRND
 40
0.0
  9
$DIMAZIN
 70
     0
  9
$DIMDSEP
 70
     0
  9
$DIMATFIT
 70
     3
  9
$DIMFRAC
 70
     0
  9
$DIMLDRBLK
  1

  9
$DIMLUNIT
 70
     2
  9
$DIMLWD
 70
     0
  9
$DIMLWE
 70
     0
  9
$DIMTMOVE
 70
     0
  9
$LUNITS
 70
     2
  9
$LUPREC
 70
     4
  9
$SKETCHINC
 40
0.1
  9
$FILLETRAD
 40
0.0
  9
$AUNITS
 70
     0
  9
$AUPREC
 70
     0
  9
$MENU
  1
acad
  9
$ELEVATION
 40
0.0
  9
$PELEVATION
 40
0.0
  9
$THICKNESS
 40
0.0
  9
$LIMCHECK
 70
     0
  9
$CHAMFERA
 40
0.0
  9
$CHAMFERB
 40
0.0
  9
$CHAMFERC
 40
0.0
  9
$CHAMFERD
 40
0.0
  9
$SKPOLY
 70
     0
  9
$TDCREATE
 40
0.000000000
  9
$TDUCREATE
 40
0.000000000
  9
$TDUPDATE
 40
0.000000000
  9
$TDUUPDATE
 40
0.000000000
  9
$TDINDWG
 40
0.0000000000
  9
$TDUSRTIMER
 40
0.0000000000
  9
$USRTIMER
 70
     1
  9
$ANGBASE
 50
0.0
  9
$ANGDIR
 70
     0
  9
$PDMODE
 70
     0
  9
$PDSIZE
 40
0.0
  9
$PLINEWID
 40
0.0
  9
$SPLFRAME
 70
     0
  9
$SPLINETYPE
 70
     6
  9
$SPLINESEGS
 70
     8
  9
$HANDSEED
  5
267
  9
$SURFTAB1
 70
     6
  9
$SURFTAB2
 70
     6
  9
$SURFTYPE
 70
     6
  9
$SURFU
 70
     6
  9
$SURFV
 70
     6
  9
$UCSBASE
  2

  9
$UCSNAME
  2

  9
$UCSORG
 10
0.0
 20
0.0
 30
0.0
  9
$UCSXDIR
 10
1.0
 20
0.0
 30
0.0
  9
$UCSYDIR
 10
0.0
 20
1.0
 30
0.0
  9
$UCSORTHOREF
  2

  9
$UCSORTHOVIEW
 70
     0
  9
$UCSORGTOP
 10
0.0
 20
0.0
 30
0.0
  9
$UCSORGBOTTOM
 10
0.0
 20
0.0
 30
0.0
  9
$UCSORGLEFT
 10
0.0
 20
0.0
 30
0.0
  9
$UCSORGRIGHT
 10
0.0
 20
0.0
 30
0.0
  9
$UCSORGFRONT
 10
0.0
 20
0.0
 30
0.0
  9
$UCSORGBACK
 10
0.0
 20
0.0
 30
0.0
  9
$PUCSBASE
  2

  9
$PUCSNAME
  2

  9
$PUCSORG
 10
0.0
 20
0.0
 30
0.0
  9
$PUCSXDIR
 10
1.0
 20
0.0
 30
0.0
  9
$PUCSYDIR
 10
0.0
 20
1.0
 30
0.0
  9
$PUCSORTHOREF
  2

  9
$PUCSORTHOVIEW
 70
     0
  9
$PUCSORGTOP
 10
0.0
 20
0.0
 30
0.0
  9
$PUCSORGBOTTOM
 10
0.0
 20
0.0
 30
0.0
  9
$PUCSORGLEFT
 10
0.0
 20
0.0
 30
0.0
  9
$PUCSORGRIGHT
 10
0.0
 20
0.0
 30
0.0
  9
$PUCSORGFRONT
 10
0.0
 20
0.0
 30
0.0
  9
$PUCSORGBACK
 10
0.0
 20
0.0
 30
0.0
  9
$USERI1
 70
 12345
  9
$USERI2
 70
     0
  9
$USERI3
 70
     0
  9
$USERI4
 70
     0
  9
$USERI5
 70
     0
  9
$USERR1
 40
0.0
  9
$USERR2
 40
0.0
  9
$USERR3
 40
0.0
  9
$USERR4
 40
0.0
  9
$USERR5
 40
0.0
  9
$WORLDVIEW
 70
     1
  9
$SHADEDGE
 70
     3
  9
$SHADEDIF
 70
    70
  9
$TILEMODE
 70
     0
  9
$MAXACTVP
 70
    64
  9
$PINSBASE
 10
0.0
 20
0.0
 30
0.0
  9
$PLIMCHECK
 70
     0
  9
$PEXTMIN
 10
-837.93599
 20
-565.000026
 30
0.0
  9
$PEXTMAX
 10
883.93599
 20
499.000026
 30
0.0
  9
$PLIMMIN
 10
0.0
 20
0.0
  9
$PLIMMAX
 10
12.0
 20
9.0
  9
$UNITMODE
 70
     0
  9
$VISRETAIN
 70
     0
  9
$PLINEGEN
 70
     1
  9
$PSLTSCALE
 70
     0
  9
$TREEDEPTH
 70
  3020
  9
$CMLSTYLE
  2
Standard
  9
$CMLJUST
 70
     0
  9
$CMLSCALE
 40
1.0
  9
$PROXYGRAPHICS
 70
     0
  9
$MEASUREMENT
 70
     0
  9
$CELWEIGHT
370
     0
  9
$ENDCAPS
280
     0
  9
$JOINSTYLE
280
     0
  9
$LWDISPLAY
290
     0
  9
$INSUNITS
 70
     0
  9
$HYPERLINKBASE
  1

  9
$STYLESHEET
  1

  9
$XEDIT
290
     1
  9
$CEPSNTYPE
380
     0
  9
$PSTYLEMODE
290
     1
  9
$FINGERPRINTGUID
  2

  9
$VERSIONGUID
  2

  9
$EXTNAMES
290
     1
  9
$PSVPSCALE
 40
0.0
  0
ENDSEC
  0
SECTION
  2
CLASSES
  0
CLASS
  1
LWPOLYLINE
  2
AcDbPolyline
  3
AutoCAD 2000
 90
        0
280
     0
281
     1
  0
CLASS
  1
IMAGE
  2
AcDbRasterImage
  3
ISM
 90
      127
280
     0
281
     1
  0
CLASS
  1
OLE2FRAME
  2
AcDbOle2Frame
  3
AutoCAD 2000
 90
        0
280
     0
281
     1
  0
CLASS
  1
HATCH
  2
AcDbHatch
  3
AutoCAD 2000
 90
        0
280
     0
281
     1
  0
CLASS
  1
DICTIONARYVAR
  2
AcDbDictionaryVar
  3
AutoCAD 2000
 90
        0
280
     0
281
     0
  0
CLASS
  1
RASTERVARIABLES
  2
AcDbRasterVariables
  3
ISM
 90
        0
280
     0
281
     0
  0
CLASS
  1
IMAGEDEF
  2
AcDbRasterImageDef
  3
ISM
 90
        0
280
     0
281
     0
  0
CLASS
  1
IMAGEDEF_REACTOR
  2
AcDbRasterImageDefReactor
  3
ISM
 90
        1
280
     0
281
     0
  0
CLASS
  1
IDBUFFER
  2
AcDbIdBuffer
  3
AutoCAD 2000
 90
        0
280
     0
281
     0
  0
CLASS
  1
SPATIAL_FILTER
  2
AcDbSpatialFilter
  3
AutoCAD 2000
 90
        0
280
     0
281
     0
  0
CLASS
  1
XRECORD
  2
AcDbXrecord
  3
AutoCAD 2000
 90
        0
280
     0
281
     0
  0
CLASS
  1
SORTENTSTABLE
  2
AcDbSortentsTable
  3
AutoCAD 2000
 90
        0
280
     0
281
     0
  0
CLASS
  1
LAYER_INDEX
  2
AcDbLayerIndex
  3
AutoCAD 2000
 90
        0
280
     0
281
     0
  0
CLASS
  1
SPATIAL_INDEX
  2
AcDbSpatialIndex
  3
AutoCAD 2000
 90
        0
280
     0
281
     0
  0
CLASS
  1
OBJECT_PTR
  2
CAseDLPNTableRecord
  3
"ASE-LPNTableRecord"
 90
        1
280
     0
281
     0
  0
CLASS
  1
LAYOUT
  2
AcDbLayout
  3
AutoCAD 2000
 90
        0
280
     0
281
     0
  0
CLASS
  1
PLOTSETTINGS
  2
AcDbPlotSettings
  3
AutoCAD 2000
 90
        0
280
     0
281
     0
  0
CLASS
  1
ACDBDICTIONARYWDFLT
  2
AcDbDictionaryWithDefault
  3
AutoCAD 2000
 90
        0
280
     0
281
     0
  0
CLASS
  1
ACDBPLACEHOLDER
  2
AcDbPlaceHolder
  3
AutoCAD 2000
 90
        0
280
     0
281
     0
  0
CLASS
  1
VBA_PROJECT
  2
AcDbVbaProject
  3
acadvba
 90
        0
280
     0
281
     0
  0
CLASS
  1
WIPEOUT
  2
AcDbWipeout
  3
WipeOut|AutoCAD Express Tool|expresstools@autodesk.com
 90
      127
280
     0
281
     1
  0
CLASS
  1
WIPEOUTVARIABLES
  2
AcDbWipeoutVariables
  3
WipeOut|AutoCAD Express Tool|expresstools@autodesk.com
 90
        0
280
     0
281
     0
  0
CLASS
  1
RTEXT
  2
RText
  3
RText|AutoCAD Express Tool|expresstools@autodesk.com
 90
        0
280
     0
281
     1
  0
CLASS
  1
ARCALIGNEDTEXT
  2
AcDbArcAlignedText
  3
ATEXT|AutoCAD Express Tool|expresstools@autodesk.com
 90
        0
280
     0
281
     1
  0
ENDSEC
  0
SECTION
  2
TABLES
  0
TABLE
  2
VPORT
  5
7
100
AcDbSymbolTable
 70
     1
  0
VPORT
  5
15
100
AcDbSymbolTableRecord
100
AcDbViewportTableRecord
  2
*ACTIVE
 70
     0
 10
0.0
 20
0.0
 11
1.0
 21
1.0
 12
23.000031
 22
-32.999969
 13
0.0
 23
0.0
 14
1.0
 24
1.0
 15
0.0
 25
0.0
 16
0.0
 26
0.0
 36
1.0
 17
0.0
 27
0.0
 37
0.0
 40
1064.000061
 41
0.688564
 42
50.0
 43
0.0
 44
0.0
 50
0.0
 51
0.0
 71
     0
 72
   100
 73
     1
 74
     1
 75
     0
 76
     0
 77
     0
 78
     0
281
     0
 65
     0
110
0.0
120
0.0
130
0.0
111
1.0
121
0.0
131
0.0
112
0.0
122
1.0
132
0.0
345
0
346
0
 79
     0
146
0.0
  0
ENDTAB
  0
TABLE
  2
LTYPE
  5
4
100
AcDbSymbolTable
 70
     7
  0
LTYPE
  5
11
100
AcDbSymbolTableRecord
100
AcDbLinetypeTableRecord
  2
ByBlock
 70
    64
  3

 72
    65
 73
     0
 40
0.0
  0
LTYPE
  5
12
100
AcDbSymbolTableRecord
100
AcDbLinetypeTableRecord
  2
ByLayer
 70
    64
  3

 72
    65
 73
     0
 40
0.0
  0
LTYPE
  5
13
100
AcDbSymbolTableRecord
100
AcDbLinetypeTableRecord
  2
Continuous
 70
    64
  3
Solid line
 72
    65
 73
     0
 40
0.0
  0
LTYPE
  5
24
100
AcDbSymbolTableRecord
100
AcDbLinetypeTableRecord
  2
DASHED
 70
    64
  3
Dashed __ __ __
 72
    65
 73
     2
 40
135.0
 49
67.5
 74
     0
 49
-67.5
 74
     0
  0
LTYPE
  5
25
100
AcDbSymbolTableRecord
100
AcDbLinetypeTableRecord
  2
DOT
 70
    64
  3
Dot . . . .
 72
    65
 73
     2
 40
102.5
 49
17.5
 74
     0
 49
-85.0
 74
     0
  0
LTYPE
  5
26
100
AcDbSymbolTableRecord
100
AcDbLinetypeTableRecord
  2
DASHDOT
 70
    64
  3
Dash dot __ . __ .
 72
    65
 73
     4
 40
852.5
 49
680.0
 74
     0
 49
-77.5
 74
     0
 49
17.5
 74
     0
 49
-77.5
 74
     0
  0
LTYPE
  5
27
100
AcDbSymbolTableRecord
100
AcDbLinetypeTableRecord
  2
DIVIDE
 70
    64
  3
Divide __ . . __ . .
 72
    65
 73
     6
 40
855.0
 49
587.5
 74
     0
 49
-77.5
 74
     0
 49
17.5
 74
     0
 49
-77.5
 74
     0
 49
17.5
 74
     0
 49
-77.5
 74
     0
  0
ENDTAB
  0
TABLE
  2
LAYER
  5
2
100
AcDbSymbolTable
 70
     9
  0
LAYER
  5
14
100
AcDbSymbolTableRecord
100
AcDbLayerTableRecord
  2
0
 70
     0
 62
     7
  6
Continuous
290
     1
370
    -3
390
1D
  0
LAYER
  5
2C
100
AcDbSymbolTableRecord
100
AcDbLayerTableRecord
  2
LAYER98
 70
     0
 62
     7
  6
Continuous
290
     1
370
    -3
390
1D
  0
LAYER
  5
30
100
AcDbSymbolTableRecord
100
AcDbLayerTableRecord
  2
HATCH_REACTORS
 70
     0
 62
    -7
  6
Continuous
290
     1
370
    -3
390
1D
  0
LAYER
  5
32
100
AcDbSymbolTableRecord
100
AcDbLayerTableRecord
  2
LAYER111
 70
     0
 62
     7
  6
Continuous
290
     1
370
    -3
390
1D
  0
LAYER
  5
34
100
AcDbSymbolTableRecord
100
AcDbLayerTableRecord
  2
LAYER01
 70
     0
 62
   134
  6
Continuous
290
     1
370
    -3
390
1D
  0
LAYER
  5
77
100
AcDbSymbolTableRecord
100
AcDbLayerTableRecord
  2
LAYER21
 70
     0
 62
   213
  6
Continuous
290
     1
370
    -3
390
1D
  0
LAYER
  5
1CE
100
AcDbSymbolTableRecord
100
AcDbLayerTableRecord
  2
LAYER02
 70
     0
 62
     7
  6
Continuous
290
     1
370
    -3
390
1D
  0
LAYER
  5
221
100
AcDbSymbolTableRecord
100
AcDbLayerTableRecord
  2
LAYER127
 70
     0
 62
     7
  6
Continuous
290
     1
370
    -3
390
1D
  0
LAYER
  5
22C
100
AcDbSymbolTableRecord
100
AcDbLayerTableRecord
  2
LAYER49
 70
     0
 62
   213
  6
Continuous
290
     1
370
    -3
390
1D
  0
ENDTAB
  0
TABLE
  2
STYLE
  5
3
100
AcDbSymbolTable
 70
     1
  0
STYLE
  5
17
100
AcDbSymbolTableRecord
100
AcDbTextStyleTableRecord
  2
Standard
 70
     0
 40
0.0
 41
1.0
 50
0.0
 71
     0
 42
0.0
  3
txt
  4

  0
ENDTAB
  0
TABLE
  2
VIEW
  5
5
100
AcDbSymbolTable
 70
     0
  0
ENDTAB
  0
TABLE
  2
UCS
  5
6
100
AcDbSymbolTable
 70
     0
  0
ENDTAB
  0
TABLE
  2
APPID
  5
8
100
AcDbSymbolTable
 70
     1
  0
APPID
  5
16
100
AcDbSymbolTableRecord
100
AcDbRegAppTableRecord
  2
ACAD
 70
     0
  0
ENDTAB
  0
TABLE
  2
DIMSTYLE
  5
9
100
AcDbSymbolTable
 70
     1
100
AcDbDimStyleTable
 71
     0
  0
DIMSTYLE
105
18
100
AcDbSymbolTableRecord
100
AcDbDimStyleTableRecord
  2
Standard
 70
     0
  3

  4

 40
1.0
 41
0.18
 42
0.0625
 43
0.38
 44
0.18
 45
0.0
 46
0.0
 47
0.0
 48
0.0
 71
     0
 72
     0
 73
     1
 74
     1
 75
     0
 76
     0
 77
     0
 78
     0
 79
     0
140
0.18
141
0.09
142
0.0
143
25.4
144
1.0
145
0.0
146
1.0
147
0.09
148
0.0
170
     0
171
     2
172
     0
173
     0
174
     0
175
     0
176
     0
177
     0
178
     0
179
     0
271
     4
272
     4
273
     2
274
     2
275
     0
276
     0
277
     2
278
    46
279
     0
280
     0
281
     0
282
     0
283
     1
284
     0
285
     0
286
     0
288
     0
289
     3
340
17
341
0
342
0
343
0
344
0
371
    -2
372
    -2
  0
ENDTAB
  0
TABLE
  2
BLOCK_RECORD
  5
1
100
AcDbSymbolTable
 70
    24
  0
BLOCK_RECORD
  5
A
100
AcDbSymbolTableRecord
100
AcDbBlockTableRecord
  2
*MODEL_SPACE
340
20
  0
BLOCK_RECORD
  5
B
100
AcDbSymbolTableRecord
100
AcDbBlockTableRecord
  2
*PAPER_SPACE
340
21
  0
BLOCK_RECORD
  5
29
100
AcDbSymbolTableRecord
100
AcDbBlockTableRecord
  2
DET-DUI2_77
340
0
102
{BLKREFS
331
252
102
}
  0
BLOCK_RECORD
  5
2D
100
AcDbSymbolTableRecord
100
AcDbBlockTableRecord
  2
2-201B___U_77
340
0
102
{BLKREFS
331
250
102
}
  0
BLOCK_RECORD
  5
38
100
AcDbSymbolTableRecord
100
AcDbBlockTableRecord
  2
HATCH-DY_U_77
340
0
102
{BLKREFS
331
5F
102
}
  0
BLOCK_RECORD
  5
6D
100
AcDbSymbolTableRecord
100
AcDbBlockTableRecord
  2
X80_F_US_U_77
340
0
102
{BLKREFS
331
83
102
}
  0
BLOCK_RECORD
  5
74
100
AcDbSymbolTableRecord
100
AcDbBlockTableRecord
  2
2--C2EV-CI_U_77
340
0
102
{BLKREFS
331
81
102
}
  0
BLOCK_RECORD
  5
84
100
AcDbSymbolTableRecord
100
AcDbBlockTableRecord
  2
_D---BRW_U_77
340
0
102
{BLKREFS
331
90
102
}
  0
BLOCK_RECORD
  5
A0
100
AcDbSymbolTableRecord
100
AcDbBlockTableRecord
  2
1-115_TV_U_77
340
0
102
{BLKREFS
331
BD
102
}
  0
BLOCK_RECORD
  5
BF
100
AcDbSymbolTableRecord
100
AcDbBlockTableRecord
  2
04006016_U_77
340
0
102
{BLKREFS
331
D9
102
}
  0
BLOCK_RECORD
  5
DD
100
AcDbSymbolTableRecord
100
AcDbBlockTableRecord
  2
HATCH-DZ_U_77
340
0
102
{BLKREFS
331
104
102
}
  0
BLOCK_RECORD
  5
112
100
AcDbSymbolTableRecord
100
AcDbBlockTableRecord
  2
X80_F_US_U_M_77
340
0
102
{BLKREFS
331
127
102
}
  0
BLOCK_RECORD
  5
119
100
AcDbSymbolTableRecord
100
AcDbBlockTableRecord
  2
2--C2EV-CI_U_M_77
340
0
102
{BLKREFS
331
125
102
}
  0
BLOCK_RECORD
  5
131
100
AcDbSymbolTableRecord
100
AcDbBlockTableRecord
  2
1-115_TV_U_M_77
340
0
102
{BLKREFS
331
14E
102
}
  0
BLOCK_RECORD
  5
150
100
AcDbSymbolTableRecord
100
AcDbBlockTableRecord
  2
04006016_U_M_77
340
0
102
{BLKREFS
331
16A
102
}
  0
BLOCK_RECORD
  5
17B
100
AcDbSymbolTableRecord
100
AcDbBlockTableRecord
  2
HATCH-EJ_U_77
340
0
102
{BLKREFS
331
1AD
102
}
  0
BLOCK_RECORD
  5
1DB
100
AcDbSymbolTableRecord
100
AcDbBlockTableRecord
  2
_BOHRBSB_U_77
340
0
102
{BLKREFS
331
1E7
102
}
  0
BLOCK_RECORD
  5
1E8
100
AcDbSymbolTableRecord
100
AcDbBlockTableRecord
  2
_BOHR_FV_U_77
340
0
102
{BLKREFS
331
1F4
102
}
  0
BLOCK_RECORD
  5
1F6
100
AcDbSymbolTableRecord
100
AcDbBlockTableRecord
  2
_D---BSC_U_77
340
0
102
{BLKREFS
331
205
102
}
  0
BLOCK_RECORD
  5
1FF
100
AcDbSymbolTableRecord
100
AcDbBlockTableRecord
  2
IT5E11___U_77
340
0
102
{BLKREFS
331
203
102
}
  0
BLOCK_RECORD
  5
206
100
AcDbSymbolTableRecord
100
AcDbBlockTableRecord
  2
_D---BSD_U_77
340
0
102
{BLKREFS
331
215
102
}
  0
BLOCK_RECORD
  5
20F
100
AcDbSymbolTableRecord
100
AcDbBlockTableRecord
  2
IT5E11___U_772
340
0
102
{BLKREFS
331
213
102
}
  0
BLOCK_RECORD
  5
219
100
AcDbSymbolTableRecord
100
AcDbBlockTableRecord
  2
T-ROCKP__U_M_77
340
0
102
{BLKREFS
331
21D
102
}
  0
BLOCK_RECORD
  5
21E
100
AcDbSymbolTableRecord
100
AcDbBlockTableRecord
  2
T-ACHTER_U_77
340
0
102
{BLKREFS
331
224
102
}
  0
BLOCK_RECORD
  5
225
100
AcDbSymbolTableRecord
100
AcDbBlockTableRecord
  2
T-VENTIL_U_77
340
0
102
{BLKREFS
331
229
102
}
  0
BLOCK_RECORD
  5
255
100
AcDbSymbolTableRecord
100
AcDbBlockTableRecord
  2
KLPL2_A4_U_0
340
0
102
{BLKREFS
331
261
102
}
  0
ENDTAB
  0
ENDSEC
  0
SECTION
  2
BLOCKS
  0
BLOCK
  5
D
100
AcDbEntity
  8
0
390
0
100
AcDbBlockBegin
  2
*MODEL_SPACE
 70
     0
 10
0.0
 20
0.0
 30
0.0
  3
*MODEL_SPACE
  1

  0
ENDBLK
  5
E
100
AcDbEntity
  8
0
390
0
100
AcDbBlockEnd
  0
BLOCK
  5
F
100
AcDbEntity
 67
     1
  8
0
390
0
100
AcDbBlockBegin
  2
*PAPER_SPACE
 70
     0
 10
0.0
 20
0.0
 30
0.0
  3
*PAPER_SPACE
  1

  0
ENDBLK
  5
10
100
AcDbEntity
 67
     1
  8
0
390
0
100
AcDbBlockEnd
  0
BLOCK
  5
2A
100
AcDbEntity
  8
0
390
0
100
AcDbBlockBegin
  2
DET-DUI2_77
 70
     0
 10
0.0
 20
0.0
 30
0.0
  3
DET-DUI2_77
  1

  0
LWPOLYLINE
  5
2B
100
AcDbEntity
  8
LAYER98
370
     0
390
0
  6
DASHED
 62
     7
100
AcDbPolyline
 90
        4
 70
     1
 10
-1017.647949
 20
-4252.30957
 10
-1017.647949
 20
-3872.309814
 10
-524.047852
 20
-3872.309814
 10
-524.047852
 20
-4252.30957
  0
INSERT
  5
250
100
AcDbEntity
  8
LAYER98
390
0
100
AcDbBlockReference
  2
2-201B___U_77
 10
-904.750183
 20
-3987.199219
 30
0.0
 50
90.0
  0
ENDBLK
  5
251
100
AcDbEntity
  8
0
390
0
100
AcDbBlockEnd
  0
BLOCK
  5
2E
100
AcDbEntity
  8
0
390
0
100
AcDbBlockBegin
  2
2-201B___U_77
 70
     0
 10
0.0
 20
0.0
 30
0.0
  3
2-201B___U_77
  1

  0
LWPOLYLINE
  5
2F
102
{ACAD_REACTORS
330
31
102
}
100
AcDbEntity
  8
HATCH_REACTORS
390
0
100
AcDbPolyline
 90
        6
 70
     1
 10
-97.692627
 20
-154.551086
 10
-97.692627
 20
-0.000061
 10
0.0
 20
-0.000061
 10
0.0
 20
-54.551086
 10
92.091553
 20
-54.551086
 10
92.123779
 20
-154.551086
  0
HATCH
  5
31
100
AcDbEntity
  8
LAYER111
370
     5
390
0
  6
Continuous
 62
   253
100
AcDbHatch
 10
0.0
 20
0.0
 30
0.0
210
0.0
220
0.0
230
1.0
  2
_CC7C1+B-1
 70
     1
 71
     1
 91
        1
 92
        2
 72
     0
 73
     1
 93
        6
 10
-97.692626953125
 20
-154.55108642578125
 10
-97.692626953125
 20
-0.00006103515625
 10
0.0
 20
-0.00006103515625
 10
0.0
 20
-54.55108642578125
 10
92.091552734375
 20
-54.55108642578125
 10
92.123779296875
 20
-154.55108642578125
 97
        1
330
2F
 75
     0
 76
     0
 98
        0
  0
LWPOLYLINE
  5
33
100
AcDbEntity
  8
LAYER01
370
    35
390
0
  6
Continuous
 62
   134
100
AcDbPolyline
 90
        2
 70
     0
 10
-53.433594
 20
-320.910828
 10
-73.300537
 20
-292.551086
  0
LWPOLYLINE
  5
35
100
AcDbEntity
  8
LAYER01
370
    25
390
0
  6
Continuous
 62
    92
100
AcDbPolyline
 90
        2
 70
     0
 10
-197.692871
 20
-254.551086
 10
-21.71167
 20
-254.551086
  0
LWPOLYLINE
  5
36
100
AcDbEntity
  8
LAYER01
370
    25
390
0
  6
Continuous
 62
    92
100
AcDbPolyline
 90
        2
 70
     0
 10
-14.692627
 20
-254.551086
 10
92.123779
 20
-254.551086
  0
LWPOLYLINE
  5
37
100
AcDbEntity
  8
LAYER01
370
    35
390
0
  6
Continuous
 62
   134
100
AcDbPolyline
 90
        2
 70
     0
 10
-97.692627
 20
-154.551086
 10
92.091553
 20
-154.551086
  0
INSERT
  5
5F
100
AcDbEntity
  8
LAYER01
390
0
100
AcDbBlockReference
  2
HATCH-DY_U_77
 10
-2422.800781
 20
-333.499573
 30
0.0
  0
LWPOLYLINE
  5
60
100
AcDbEntity
  8
LAYER01
370
    25
390
0
  6
DASHDOT
 62
    92
100
AcDbPolyline
 90
        2
 70
     0
 10
-1.891846
 20
-277.770569
 10
-1.891846
 20
-292.551086
  0
LWPOLYLINE
  5
61
100
AcDbEntity
  8
LAYER01
370
    35
390
0
  6
Continuous
 62
   134
100
AcDbPolyline
 90
        2
 70
     0
 10
-4.291992
 20
-284.551086
 10
-4.291992
 20
-292.551086
  0
LWPOLYLINE
  5
62
100
AcDbEntity
  8
LAYER01
370
    35
390
0
  6
Continuous
 62
   134
100
AcDbPolyline
 90
        2
 70
     0
 10
0.508057
 20
-284.551086
 10
0.508057
 20
-292.551086
  0
LWPOLYLINE
  5
63
100
AcDbEntity
  8
LAYER01
370
    35
390
0
  6
Continuous
 62
   134
100
AcDbPolyline
 90
        2
 70
     0
 10
0.508057
 20
-284.551086
 10
0.508057
 20
-292.551086
  0
LWPOLYLINE
  5
64
100
AcDbEntity
  8
LAYER01
370
    35
390
0
  6
Continuous
 62
   134
100
AcDbPolyline
 90
        2
 70
     0
 10
-4.291992
 20
-284.551086
 10
-4.291992
 20
-292.551086
  0
LWPOLYLINE
  5
65
100
AcDbEntity
  8
LAYER01
370
    35
390
0
  6
Continuous
 62
   134
100
AcDbPolyline
 90
        7
 70
     1
 10
-7.891846
 20
-294.051086
 10
4.108154
 20
-294.051086
 42
0.414214
 10
5.108154
 20
-293.051086
 10
5.108154
 20
-292.551086
 10
-8.891846
 20
-292.551086
 10
-8.891846
 20
-293.051086
 42
0.414214
 10
-7.891846
 20
-294.051086
  0
LWPOLYLINE
  5
66
100
AcDbEntity
  8
LAYER01
370
    35
390
0
  6
Continuous
 62
   134
100
AcDbPolyline
 90
        2
 70
     0
 10
-4.845947
 20
-279.951111
 10
1.062012
 20
-279.951111
  0
LWPOLYLINE
  5
67
100
AcDbEntity
  8
LAYER01
370
    13
390
0
  6
Continuous
 62
   213
100
AcDbPolyline
 90
        2
 70
     0
 10
-0.351074
 20
-279.951111
 42
0.626098
 10
-3.432617
 20
-279.951111
  0
LWPOLYLINE
  5
68
100
AcDbEntity
  8
LAYER01
370
    13
390
0
  6
Continuous
 62
   213
100
AcDbPolyline
 90
        2
 70
     0
 10
-4.845703
 20
-279.951111
 42
0.423414
 10
-5.467529
 20
-282.950989
  0
LWPOLYLINE
  5
69
100
AcDbEntity
  8
LAYER01
370
    13
390
0
  6
Continuous
 62
   213
100
AcDbPolyline
 90
        2
 70
     0
 10
1.683838
 20
-282.951111
 42
0.423414
 10
1.062012
 20
-279.950989
  0
LWPOLYLINE
  5
6A
100
AcDbEntity
  8
LAYER01
370
    35
390
0
  6
Continuous
 62
   134
100
AcDbPolyline
 90
        4
 70
     1
 10
-19.692627
 20
-159.551086
 10
45.307373
 20
-159.551086
 10
45.307373
 20
-154.551086
 10
-19.692627
 20
-154.551086
  0
LWPOLYLINE
  5
6B
100
AcDbEntity
  8
LAYER01
370
    18
390
0
  6
DASHED
 62
     7
100
AcDbPolyline
 90
        2
 70
     0
 10
13.307373
 20
-159.551086
 10
13.307373
 20
-154.551086
  0
LWPOLYLINE
  5
6C
100
AcDbEntity
  8
LAYER01
370
    18
390
0
  6
DASHED
 62
     7
100
AcDbPolyline
 90
        2
 70
     0
 10
-8.692627
 20
-159.551086
 10
-8.692627
 20
-154.551086
  0
INSERT
  5
83
100
AcDbEntity
  8
LAYER01
390
0
100
AcDbBlockReference
  2
X80_F_US_U_77
 10
2.307373
 20
-165.551025
 30
0.0
 50
270.0
  0
INSERT
  5
90
100
AcDbEntity
  8
LAYER01
390
0
100
AcDbBlockReference
  2
_D---BRW_U_77
 10
-2422.800781
 20
-333.499573
 30
0.0
  0
LWPOLYLINE
  5
91
100
AcDbEntity
  8
LAYER01
370
    25
390
0
  6
Continuous
 62
    92
100
AcDbPolyline
 90
        5
 70
     0
 10
-133.677734
 20
-235.733459
 10
-147.93457
 20
-172.868713
 42
-1.252188
 10
-118.677734
 20
-172.868713
 10
-132.93457
 20
-235.733459
 42
1.252183
 10
-103.677734
 20
-235.733459
  0
LWPOLYLINE
  5
92
100
AcDbEntity
  8
LAYER01
370
    25
390
0
  6
Continuous
 62
    92
100
AcDbPolyline
 90
        5
 70
     0
 10
-103.677734
 20
-235.733459
 10
-117.935059
 20
-172.868713
 42
-1.252188
 10
-88.677734
 20
-172.868713
 10
-102.934814
 20
-235.733459
 42
1.252181
 10
-73.677979
 20
-235.733582
  0
LWPOLYLINE
  5
93
100
AcDbEntity
  8
LAYER01
370
    25
390
0
  6
Continuous
 62
    92
100
AcDbPolyline
 90
        5
 70
     0
 10
-73.677734
 20
-235.733459
 10
-87.934814
 20
-172.868713
 42
-1.252186
 10
-58.677979
 20
-172.868591
 10
-72.934814
 20
-235.733459
 42
1.252181
 10
-43.677979
 20
-235.733582
  0
LWPOLYLINE
  5
94
100
AcDbEntity
  8
LAYER01
370
    25
390
0
  6
Continuous
 62
    92
100
AcDbPolyline
 90
        5
 70
     0
 10
-43.677734
 20
-235.733459
 10
-57.934814
 20
-172.868713
 42
-1.252186
 10
-28.677979
 20
-172.868591
 10
-42.934814
 20
-235.733459
 42
0.627149
 10
-21.825684
 20
-252.578796
  0
LWPOLYLINE
  5
95
100
AcDbEntity
  8
LAYER01
370
    25
390
0
  6
Continuous
 62
    92
100
AcDbPolyline
 90
        3
 70
     0
 10
-19.021973
 20
-212.169006
 10
-27.934814
 20
-172.868713
 42
-0.242798
 10
-24.486572
 20
-159.551086
  0
LWPOLYLINE
  5
96
100
AcDbEntity
  8
LAYER01
370
    25
390
0
  6
Continuous
 62
    92
100
AcDbPolyline
 90
        2
 70
     0
 10
-3.125977
 20
-159.551086
 42
-0.002573
 10
-3.023682
 20
-159.666687
  0
LWPOLYLINE
  5
97
100
AcDbEntity
  8
LAYER01
370
    25
390
0
  6
Continuous
 62
    92
100
AcDbPolyline
 90
        3
 70
     0
 10
1.099365
 20
-173.851135
 10
-12.934814
 20
-235.733459
 42
1.252181
 10
16.322021
 20
-235.733582
  0
LWPOLYLINE
  5
98
100
AcDbEntity
  8
LAYER01
370
    25
390
0
  6
Continuous
 62
    92
100
AcDbPolyline
 90
        2
 70
     0
 10
16.322266
 20
-235.733459
 10
2.288086
 20
-173.851135
  0
LWPOLYLINE
  5
99
100
AcDbEntity
  8
LAYER01
370
    25
390
0
  6
Continuous
 62
    92
100
AcDbPolyline
 90
        2
 70
     0
 10
4.506348
 20
-159.558899
 42
-0.000177
 10
4.513428
 20
-159.551086
  0
LWPOLYLINE
  5
9A
100
AcDbEntity
  8
LAYER01
370
    25
390
0
  6
Continuous
 62
    92
100
AcDbPolyline
 90
        4
 70
     0
 10
30.441406
 20
-163.551086
 42
-0.159977
 10
31.322266
 20
-172.868713
 10
17.065186
 20
-235.733459
 42
1.252181
 10
46.322021
 20
-235.733582
  0
LWPOLYLINE
  5
9B
100
AcDbEntity
  8
LAYER01
370
    25
390
0
  6
Continuous
 62
    92
100
AcDbPolyline
 90
        3
 70
     0
 10
46.322266
 20
-235.733459
 10
32.065186
 20
-172.868713
 42
-0.198955
 10
34.005127
 20
-161.551086
  0
LWPOLYLINE
  5
9C
100
AcDbEntity
  8
LAYER01
370
    25
390
0
  6
Continuous
 62
    92
100
AcDbPolyline
 90
        4
 70
     0
 10
45.307373
 20
-154.615295
 42
-0.509968
 10
61.322021
 20
-172.868591
 10
47.065186
 20
-235.733459
 42
1.252181
 10
76.322021
 20
-235.733582
  0
LWPOLYLINE
  5
9D
100
AcDbEntity
  8
LAYER01
370
    25
390
0
  6
Continuous
 62
    92
100
AcDbPolyline
 90
        5
 70
     0
 10
76.322266
 20
-235.733459
 10
62.065186
 20
-172.868713
 42
-1.252186
 10
91.322021
 20
-172.868591
 10
77.065186
 20
-235.733459
 42
0.489344
 10
92.091553
 20
-254.045715
  0
LWPOLYLINE
  5
9E
100
AcDbEntity
  8
LAYER01
370
    25
390
0
  6
Continuous
 62
    92
100
AcDbPolyline
 90
        2
 70
     0
 10
-19.692627
 20
-154.551086
 10
45.307373
 20
-159.551086
  0
LWPOLYLINE
  5
9F
100
AcDbEntity
  8
LAYER01
370
    25
390
0
  6
Continuous
 62
    92
100
AcDbPolyline
 90
        2
 70
     0
 10
45.307373
 20
-154.551086
 10
-19.692627
 20
-159.551086
  0
INSERT
  5
BD
100
AcDbEntity
  8
LAYER01
390
0
100
AcDbBlockReference
  2
1-115_TV_U_77
 10
-19.692627
 20
-159.551025
 30
0.0
 50
270.0
  0
LWPOLYLINE
  5
BE
100
AcDbEntity
  8
LAYER01
370
    35
390
0
  6
Continuous
 62
   134
100
AcDbPolyline
 90
        4
 70
     1
 10
-9.692627
 20
-165.551086
 10
14.307373
 20
-165.551086
 10
14.307373
 20
-163.551086
 10
-9.692627
 20
-163.551086
  0
INSERT
  5
D9
100
AcDbEntity
  8
LAYER01
390
0
100
AcDbBlockReference
  2
04006016_U_77
 10
-18.792725
 20
-284.551025
 30
0.0
  0
LWPOLYLINE
  5
DA
100
AcDbEntity
  8
LAYER01
370
    25
390
0
  6
DASHDOT
 62
    92
100
AcDbPolyline
 90
        2
 70
     0
 10
0.0
 20
-54.551086
 10
92.091553
 20
-54.551086
  0
LWPOLYLINE
  5
DB
100
AcDbEntity
  8
LAYER01
370
    25
390
0
  6
DASHDOT
 62
    92
100
AcDbPolyline
 90
        2
 70
     0
 10
92.091553
 20
-154.551086
 10
92.091553
 20
-54.551086
  0
LWPOLYLINE
  5
DC
100
AcDbEntity
  8
LAYER01
370
    35
390
0
  6
Continuous
 62
   134
100
AcDbPolyline
 90
        2
 70
     0
 10
-97.692627
 20
-154.551086
 10
-97.692627
 20
-0.000061
  0
INSERT
  5
104
100
AcDbEntity
  8
LAYER01
390
0
100
AcDbBlockReference
  2
HATCH-DZ_U_77
 10
-2422.800781
 20
-333.499573
 30
0.0
  0
LWPOLYLINE
  5
105
100
AcDbEntity
  8
LAYER01
370
    25
390
0
  6
DASHDOT
 62
    92
100
AcDbPolyline
 90
        2
 70
     0
 10
-220.912109
 20
-55.651062
 10
-237.692871
 20
-55.651062
  0
LWPOLYLINE
  5
106
100
AcDbEntity
  8
LAYER01
370
    35
390
0
  6
Continuous
 62
   134
100
AcDbPolyline
 90
        2
 70
     0
 10
-227.692871
 20
-58.051086
 10
-235.692871
 20
-58.051086
  0
LWPOLYLINE
  5
107
100
AcDbEntity
  8
LAYER01
370
    35
390
0
  6
Continuous
 62
   134
100
AcDbPolyline
 90
        2
 70
     0
 10
-227.692871
 20
-53.251038
 10
-235.692871
 20
-53.251038
  0
LWPOLYLINE
  5
108
100
AcDbEntity
  8
LAYER01
370
    35
390
0
  6
Continuous
 62
   134
100
AcDbPolyline
 90
        2
 70
     0
 10
-227.692871
 20
-51.651062
 10
-235.692871
 20
-51.651062
  0
LWPOLYLINE
  5
109
100
AcDbEntity
  8
LAYER01
370
    35
390
0
  6
Continuous
 62
   134
100
AcDbPolyline
 90
        2
 70
     0
 10
-227.692871
 20
-59.651062
 10
-235.692871
 20
-59.651062
  0
LWPOLYLINE
  5
10A
100
AcDbEntity
  8
LAYER01
370
    35
390
0
  6
Continuous
 62
   134
100
AcDbPolyline
 90
        7
 70
     1
 10
-237.192871
 20
-61.651062
 10
-237.192871
 20
-49.651062
 42
-0.414214
 10
-236.192871
 20
-48.651062
 10
-235.692871
 20
-48.651062
 10
-235.692871
 20
-62.651062
 10
-236.192871
 20
-62.651062
 42
-0.414214
 10
-237.192871
 20
-61.651062
  0
LWPOLYLINE
  5
10B
100
AcDbEntity
  8
LAYER01
370
    35
390
0
  6
Continuous
 62
   134
100
AcDbPolyline
 90
        2
 70
     0
 10
-223.092773
 20
-58.605042
 10
-223.092773
 20
-52.697083
  0
LWPOLYLINE
  5
10C
100
AcDbEntity
  8
LAYER01
370
    13
390
0
  6
Continuous
 62
   213
100
AcDbPolyline
 90
        2
 70
     0
 10
-223.092773
 20
-57.191711
 42
0.626098
 10
-223.092773
 20
-54.110413
  0
LWPOLYLINE
  5
10D
100
AcDbEntity
  8
LAYER01
370
    13
390
0
  6
Continuous
 62
   213
100
AcDbPolyline
 90
        2
 70
     0
 10
-226.092773
 20
-59.226746
 42
0.423414
 10
-223.092773
 20
-58.605042
  0
LWPOLYLINE
  5
10E
100
AcDbEntity
  8
LAYER01
370
    13
390
0
  6
Continuous
 62
   213
100
AcDbPolyline
 90
        2
 70
     0
 10
-223.092773
 20
-52.697083
 42
0.423414
 10
-226.092773
 20
-52.075378
  0
LWPOLYLINE
  5
10F
100
AcDbEntity
  8
LAYER01
370
    35
390
0
  6
Continuous
 62
   134
100
AcDbPolyline
 90
        4
 70
     1
 10
-102.692627
 20
-76.551086
 10
-102.692627
 20
-11.551086
 10
-97.692627
 20
-11.551086
 10
-97.692627
 20
-76.551086
  0
LWPOLYLINE
  5
110
100
AcDbEntity
  8
LAYER01
370
    18
390
0
  6
DASHED
 62
     7
100
AcDbPolyline
 90
        2
 70
     0
 10
-102.692627
 20
-43.551086
 10
-97.692627
 20
-43.551086
  0
LWPOLYLINE
  5
111
100
AcDbEntity
  8
LAYER01
370
    18
390
0
  6
DASHED
 62
     7
100
AcDbPolyline
 90
        2
 70
     0
 10
-102.692627
 20
-65.551086
 10
-97.692627
 20
-65.551086
  0
INSERT
  5
127
100
AcDbEntity
  8
LAYER01
390
0
100
AcDbBlockReference
  2
X80_F_US_U_M_77
 10
-108.692627
 20
-54.551025
 30
0.0
 50
180.0
  0
LWPOLYLINE
  5
128
100
AcDbEntity
  8
LAYER01
370
    25
390
0
  6
Continuous
 62
    92
100
AcDbPolyline
 90
        3
 70
     0
 10
-155.310547
 20
-75.88031
 10
-116.010254
 20
-84.793274
 42
0.242794
 10
-102.692871
 20
-81.34491
  0
LWPOLYLINE
  5
129
100
AcDbEntity
  8
LAYER01
370
    25
390
0
  6
Continuous
 62
    92
100
AcDbPolyline
 90
        2
 70
     0
 10
-102.692627
 20
-59.984436
 42
0.002575
 10
-102.80835
 20
-59.882019
  0
LWPOLYLINE
  5
12A
100
AcDbEntity
  8
LAYER01
370
    25
390
0
  6
Continuous
 62
    92
100
AcDbPolyline
 90
        3
 70
     0
 10
-116.992676
 20
-55.758972
 10
-178.875
 20
-69.793152
 42
-1.252207
 10
-178.875
 20
-40.536194
  0
LWPOLYLINE
  5
12B
100
AcDbEntity
  8
LAYER01
370
    25
390
0
  6
Continuous
 62
    92
100
AcDbPolyline
 90
        2
 70
     0
 10
-178.875
 20
-40.536194
 10
-116.992676
 20
-54.570374
  0
LWPOLYLINE
  5
12C
100
AcDbEntity
  8
LAYER01
370
    25
390
0
  6
Continuous
 62
    92
100
AcDbPolyline
 90
        2
 70
     0
 10
-102.700684
 20
-52.35199
 42
0.000176
 10
-102.692871
 20
-52.34491
  0
LWPOLYLINE
  5
12D
100
AcDbEntity
  8
LAYER01
370
    25
390
0
  6
Continuous
 62
    92
100
AcDbPolyline
 90
        4
 70
     0
 10
-106.692627
 20
-26.417053
 42
0.159978
 10
-116.010254
 20
-25.536194
 10
-178.875
 20
-39.793152
 42
-1.252207
 10
-178.875
 20
-10.536194
  0
LWPOLYLINE
  5
12E
100
AcDbEntity
  8
LAYER01
370
    25
390
0
  6
Continuous
 62
    92
100
AcDbPolyline
 90
        3
 70
     0
 10
-178.875
 20
-10.536194
 10
-116.010254
 20
-24.793274
 42
0.198952
 10
-104.692627
 20
-22.85321
  0
LWPOLYLINE
  5
12F
100
AcDbEntity
  8
LAYER01
370
    25
390
0
  6
Continuous
 62
    92
100
AcDbPolyline
 90
        2
 70
     0
 10
-97.692627
 20
-76.551086
 10
-102.692627
 20
-11.551086
  0
LWPOLYLINE
  5
130
100
AcDbEntity
  8
LAYER01
370
    25
390
0
  6
Continuous
 62
    92
100
AcDbPolyline
 90
        2
 70
     0
 10
-97.692627
 20
-11.551086
 10
-102.692627
 20
-76.551086
  0
INSERT
  5
14E
100
AcDbEntity
  8
LAYER01
390
0
100
AcDbBlockReference
  2
1-115_TV_U_M_77
 10
-102.692627
 20
-76.551025
 30
0.0
 50
180.0
  0
LWPOLYLINE
  5
14F
100
AcDbEntity
  8
LAYER01
370
    35
390
0
  6
Continuous
 62
   134
100
AcDbPolyline
 90
        4
 70
     1
 10
-108.692627
 20
-66.551086
 10
-108.692627
 20
-42.551086
 10
-106.692627
 20
-42.551086
 10
-106.692627
 20
-66.551086
  0
INSERT
  5
16A
100
AcDbEntity
  8
LAYER01
390
0
100
AcDbBlockReference
  2
04006016_U_M_77
 10
-227.692871
 20
-75.651062
 30
0.0
 50
90.0
  0
LWPOLYLINE
  5
16B
100
AcDbEntity
  8
LAYER01
370
    25
390
0
  6
DASHDOT
 62
    92
100
AcDbPolyline
 90
        2
 70
     0
 10
-97.692627
 20
-0.000061
 10
0.0
 20
-0.000061
  0
LWPOLYLINE
  5
16C
100
AcDbEntity
  8
LAYER01
370
    25
390
0
  6
DASHDOT
 62
    92
100
AcDbPolyline
 90
        2
 70
     0
 10
0.0
 20
-0.000061
 10
0.0
 20
-54.551086
  0
LWPOLYLINE
  5
16D
100
AcDbEntity
  8
LAYER01
370
    25
390
0
  6
Continuous
 62
    92
100
AcDbPolyline
 90
        2
 70
     0
 10
-197.692871
 20
-254.551086
 10
-197.692871
 20
-78.570129
  0
LWPOLYLINE
  5
16E
100
AcDbEntity
  8
LAYER01
370
    25
390
0
  6
Continuous
 62
    92
100
AcDbPolyline
 90
        5
 70
     0
 10
-163.677734
 20
-235.733459
 10
-177.93457
 20
-172.868713
 42
-1.252188
 10
-148.677734
 20
-172.868713
 10
-162.93457
 20
-235.733459
 42
1.252183
 10
-133.677734
 20
-235.733459
  0
LWPOLYLINE
  5
16F
100
AcDbEntity
  8
LAYER01
370
    25
390
0
  6
Continuous
 62
    92
100
AcDbPolyline
 90
        5
 70
     0
 10
-163.677734
 20
-235.733459
 10
-177.93457
 20
-172.868713
 42
-1.252188
 10
-148.677734
 20
-172.868713
 10
-162.93457
 20
-235.733459
 42
1.252183
 10
-133.677734
 20
-235.733459
  0
LWPOLYLINE
  5
170
100
AcDbEntity
  8
LAYER01
370
    25
390
0
  6
Continuous
 62
    92
100
AcDbPolyline
 90
        2
 70
     0
 10
-193.677734
 20
-235.733459
 10
-197.192871
 20
-220.234924
  0
LWPOLYLINE
  5
171
100
AcDbEntity
  8
LAYER01
370
    25
390
0
  6
Continuous
 62
    92
100
AcDbPolyline
 90
        4
 70
     0
 10
-197.192871
 20
-155.063293
 42
-0.564596
 10
-178.677734
 20
-172.868713
 10
-192.93457
 20
-235.733459
 42
1.252183
 10
-163.677734
 20
-235.733459
  0
LWPOLYLINE
  5
172
100
AcDbEntity
  8
LAYER01
370
    25
390
0
  6
Continuous
 62
    92
100
AcDbPolyline
 90
        5
 70
     0
 10
-178.875
 20
-130.536194
 10
-116.010254
 20
-144.793274
 42
1.252166
 10
-116.010254
 20
-115.536194
 10
-178.875
 20
-129.793152
 42
-1.252207
 10
-178.875
 20
-100.536194
  0
LWPOLYLINE
  5
173
100
AcDbEntity
  8
LAYER01
370
    25
390
0
  6
Continuous
 62
    92
100
AcDbPolyline
 90
        5
 70
     0
 10
-178.875
 20
-100.536194
 10
-116.010254
 20
-114.793274
 42
1.252166
 10
-116.010254
 20
-85.536194
 10
-178.875
 20
-99.793152
 42
-0.627159
 10
-195.720703
 20
-78.683899
  0
LWPOLYLINE
  5
174
100
AcDbEntity
  8
LAYER01
370
    25
390
0
  6
Continuous
 62
    92
100
AcDbPolyline
 90
        2
 70
     0
 10
-187.4375
 20
-71.111511
 42
-0.146083
 10
-178.875
 20
-70.536316
  0
LWPOLYLINE
  5
175
100
AcDbEntity
  8
LAYER01
370
    25
390
0
  6
Continuous
 62
    92
100
AcDbPolyline
 90
        2
 70
     0
 10
-97.692627
 20
-154.551086
 10
-197.192871
 20
-154.551086
  0
LWPOLYLINE
  5
176
100
AcDbEntity
  8
LAYER01
370
    25
390
0
  6
Continuous
 62
    92
100
AcDbPolyline
 90
        3
 70
     0
 10
-98.782959
 20
-154.551086
 42
0.367928
 10
-116.010254
 20
-145.536194
 10
-155.760254
 20
-154.551086
  0
LWPOLYLINE
  5
177
100
AcDbEntity
  8
LAYER01
370
    25
390
0
  6
Continuous
 62
    92
100
AcDbPolyline
 90
        2
 70
     0
 10
-193.893066
 20
-154.551086
 42
-0.710117
 10
-178.875
 20
-130.536316
  0
LWPOLYLINE
  5
178
100
AcDbEntity
  8
LAYER01
370
    25
390
0
  6
Continuous
 62
    92
100
AcDbPolyline
 90
        2
 70
     0
 10
-197.692871
 20
-0.000061
 10
-197.692871
 20
-71.551086
  0
LWPOLYLINE
  5
179
100
AcDbEntity
  8
LAYER01
370
    25
390
0
  6
Continuous
 62
    92
100
AcDbPolyline
 90
        3
 70
     0
 10
-178.875
 20
-10.536194
 10
-116.010254
 20
-24.793274
 42
0.736164
 10
-101.661865
 20
-0.000183
  0
LWPOLYLINE
  5
17A
100
AcDbEntity
  8
LAYER01
370
    25
390
0
  6
Continuous
 62
    92
100
AcDbPolyline
 90
        3
 70
     0
 10
-135.692871
 20
-0.000061
 10
-178.875
 20
-9.793152
 42
-0.383731
 10
-196.39209
 20
-0.000061
  0
INSERT
  5
1AD
100
AcDbEntity
  8
LAYER01
390
0
100
AcDbBlockReference
  2
HATCH-EJ_U_77
 10
-2422.800781
 20
-333.499573
 30
0.0
  0
LWPOLYLINE
  5
1AE
100
AcDbEntity
  8
LAYER01
370
    35
390
0
  6
Continuous
 62
   134
100
AcDbPolyline
 90
        2
 70
     0
 10
-197.692871
 20
-284.551086
 10
-227.692871
 20
-284.551086
  0
LWPOLYLINE
  5
1AF
100
AcDbEntity
  8
LAYER01
370
    35
390
0
  6
Continuous
 62
   134
100
AcDbPolyline
 90
        2
 70
     0
 10
-199.692871
 20
-282.551086
 10
-225.692871
 20
-282.551086
  0
LWPOLYLINE
  5
1B0
100
AcDbEntity
  8
LAYER01
370
    35
390
0
  6
Continuous
 62
   134
100
AcDbPolyline
 90
        2
 70
     0
 10
-227.692871
 20
-284.551086
 10
-227.692871
 20
-234.551086
  0
LWPOLYLINE
  5
1B1
100
AcDbEntity
  8
LAYER01
370
    35
390
0
  6
Continuous
 62
   134
100
AcDbPolyline
 90
        2
 70
     0
 10
-225.692871
 20
-282.551086
 10
-225.692871
 20
-234.551086
  0
LWPOLYLINE
  5
1B2
100
AcDbEntity
  8
LAYER01
370
    35
390
0
  6
Continuous
 62
   134
100
AcDbPolyline
 90
        2
 70
     0
 10
-225.692871
 20
-234.551086
 10
-227.692871
 20
-234.551086
  0
LWPOLYLINE
  5
1B3
100
AcDbEntity
  8
LAYER01
370
    25
390
0
  6
DASHDOT
 62
    92
100
AcDbPolyline
 90
        2
 70
     0
 10
-210.692871
 20
-277.770569
 10
-210.692871
 20
-295.051086
  0
LWPOLYLINE
  5
1B4
100
AcDbEntity
  8
LAYER01
370
    35
390
0
  6
Continuous
 62
   134
100
AcDbPolyline
 90
        2
 70
     0
 10
-208.29248
 20
-284.551086
 10
-208.29248
 20
-292.551086
  0
LWPOLYLINE
  5
1B5
100
AcDbEntity
  8
LAYER01
370
    35
390
0
  6
Continuous
 62
   134
100
AcDbPolyline
 90
        2
 70
     0
 10
-213.092773
 20
-284.551086
 10
-213.092773
 20
-292.551086
  0
LWPOLYLINE
  5
1B6
100
AcDbEntity
  8
LAYER01
370
    35
390
0
  6
Continuous
 62
   134
100
AcDbPolyline
 90
        2
 70
     0
 10
-214.692871
 20
-284.551086
 10
-214.692871
 20
-292.551086
  0
LWPOLYLINE
  5
1B7
100
AcDbEntity
  8
LAYER01
370
    35
390
0
  6
Continuous
 62
   134
100
AcDbPolyline
 90
        2
 70
     0
 10
-206.692871
 20
-284.551086
 10
-206.692871
 20
-292.551086
  0
LWPOLYLINE
  5
1B8
100
AcDbEntity
  8
LAYER01
370
    35
390
0
  6
Continuous
 62
   134
100
AcDbPolyline
 90
        7
 70
     1
 10
-204.692871
 20
-294.051086
 10
-216.692871
 20
-294.051086
 42
-0.414214
 10
-217.692871
 20
-293.051086
 10
-217.692871
 20
-292.551086
 10
-203.692871
 20
-292.551086
 10
-203.692871
 20
-293.051086
 42
-0.414214
 10
-204.692871
 20
-294.051086
  0
LWPOLYLINE
  5
1B9
100
AcDbEntity
  8
LAYER01
370
    35
390
0
  6
Continuous
 62
   134
100
AcDbPolyline
 90
        2
 70
     0
 10
-207.73877
 20
-279.551086
 10
-213.646484
 20
-279.551086
  0
LWPOLYLINE
  5
1BA
100
AcDbEntity
  8
LAYER01
370
    13
390
0
  6
Continuous
 62
   213
100
AcDbPolyline
 90
        2
 70
     0
 10
-209.152344
 20
-279.551086
 42
0.626098
 10
-212.233398
 20
-279.551086
  0
LWPOLYLINE
  5
1BB
100
AcDbEntity
  8
LAYER01
370
    13
390
0
  6
Continuous
 62
   213
100
AcDbPolyline
 90
        2
 70
     0
 10
-207.116699
 20
-282.551086
 42
0.423414
 10
-207.738281
 20
-279.551208
  0
LWPOLYLINE
  5
1BC
100
AcDbEntity
  8
LAYER01
370
    13
390
0
  6
Continuous
 62
   213
100
AcDbPolyline
 90
        2
 70
     0
 10
-213.646973
 20
-279.551086
 42
0.423414
 10
-214.268555
 20
-282.551208
  0
LWPOLYLINE
  5
1BD
100
AcDbEntity
  8
LAYER01
370
    25
390
0
  6
DASHDOT
 62
    92
100
AcDbPolyline
 90
        2
 70
     0
 10
-220.912109
 20
-249.551086
 10
-238.192871
 20
-249.551086
  0
LWPOLYLINE
  5
1BE
100
AcDbEntity
  8
LAYER01
370
    35
390
0
  6
Continuous
 62
   134
100
AcDbPolyline
 90
        2
 70
     0
 10
-227.692871
 20
-251.951111
 10
-235.692871
 20
-251.951111
  0
LWPOLYLINE
  5
1BF
100
AcDbEntity
  8
LAYER01
370
    35
390
0
  6
Continuous
 62
   134
100
AcDbPolyline
 90
        2
 70
     0
 10
-227.692871
 20
-247.151062
 10
-235.692871
 20
-247.151062
  0
LWPOLYLINE
  5
1C0
100
AcDbEntity
  8
LAYER01
370
    35
390
0
  6
Continuous
 62
   134
100
AcDbPolyline
 90
        2
 70
     0
 10
-227.692871
 20
-245.401062
 10
-235.692871
 20
-245.401062
  0
LWPOLYLINE
  5
1C1
100
AcDbEntity
  8
LAYER01
370
    35
390
0
  6
Continuous
 62
   134
100
AcDbPolyline
 90
        2
 70
     0
 10
-227.692871
 20
-253.701111
 10
-235.692871
 20
-253.701111
  0
LWPOLYLINE
  5
1C2
100
AcDbEntity
  8
LAYER01
370
    35
390
0
  6
Continuous
 62
   134
100
AcDbPolyline
 90
        7
 70
     1
 10
-237.192871
 20
-255.551086
 10
-237.192871
 20
-243.551086
 42
-0.414214
 10
-236.192871
 20
-242.551086
 10
-235.692871
 20
-242.551086
 10
-235.692871
 20
-256.551086
 10
-236.192871
 20
-256.551086
 42
-0.414214
 10
-237.192871
 20
-255.551086
  0
LWPOLYLINE
  5
1C3
100
AcDbEntity
  8
LAYER01
370
    35
390
0
  6
Continuous
 62
   134
100
AcDbPolyline
 90
        2
 70
     0
 10
-222.692871
 20
-252.505066
 10
-222.692871
 20
-246.597107
  0
LWPOLYLINE
  5
1C4
100
AcDbEntity
  8
LAYER01
370
    13
390
0
  6
Continuous
 62
   213
100
AcDbPolyline
 90
        2
 70
     0
 10
-222.692871
 20
-251.091736
 42
0.626098
 10
-222.692871
 20
-248.010437
  0
LWPOLYLINE
  5
1C5
100
AcDbEntity
  8
LAYER01
370
    13
390
0
  6
Continuous
 62
   213
100
AcDbPolyline
 90
        2
 70
     0
 10
-225.692871
 20
-253.12677
 42
0.423414
 10
-222.692871
 20
-252.505066
  0
LWPOLYLINE
  5
1C6
100
AcDbEntity
  8
LAYER01
370
    13
390
0
  6
Continuous
 62
   213
100
AcDbPolyline
 90
        2
 70
     0
 10
-222.692871
 20
-246.597107
 42
0.423414
 10
-225.692871
 20
-245.975403
  0
LWPOLYLINE
  5
1C7
100
AcDbEntity
  8
LAYER01
370
    25
390
0
  6
DASHDOT
 62
    92
100
AcDbPolyline
 90
        7
 70
     0
 10
92.123779
 20
-154.551086
 10
89.123779
 20
-157.551086
 10
92.123779
 20
-160.551086
 10
92.123779
 20
-180.551086
 10
95.123779
 20
-183.551086
 10
92.123779
 20
-186.551086
 10
92.123779
 20
-206.551086
  0
LWPOLYLINE
  5
1C8
100
AcDbEntity
  8
LAYER01
370
    25
390
0
  6
DASHDOT
 62
    92
100
AcDbPolyline
 90
        7
 70
     0
 10
92.123779
 20
-206.551086
 10
89.123779
 20
-209.551086
 10
92.123779
 20
-212.551086
 10
92.123779
 20
-232.551086
 10
95.123779
 20
-235.551086
 10
92.123779
 20
-238.551086
 10
92.123779
 20
-258.551086
  0
LWPOLYLINE
  5
1C9
100
AcDbEntity
  8
LAYER01
370
    25
390
0
  6
DASHDOT
 62
    92
100
AcDbPolyline
 90
        7
 70
     0
 10
92.123779
 20
-258.551086
 10
89.123779
 20
-261.551086
 10
92.123779
 20
-264.551086
 10
92.123779
 20
-284.551086
 10
95.123779
 20
-287.551086
 10
92.123779
 20
-290.551086
 10
92.123779
 20
-295.798889
  0
LWPOLYLINE
  5
1CA
100
AcDbEntity
  8
LAYER01
370
    25
390
0
  6
DASHDOT
 62
    92
100
AcDbPolyline
 90
        7
 70
     0
 10
-238.94043
 20
-0.000061
 10
-235.94043
 20
-3.000061
 10
-232.94043
 20
-0.000061
 10
-212.94043
 20
-0.000061
 10
-209.94043
 20
2.999939
 10
-206.94043
 20
-0.000061
 10
-186.94043
 20
-0.000061
  0
LWPOLYLINE
  5
1CB
100
AcDbEntity
  8
LAYER01
370
    25
390
0
  6
DASHDOT
 62
    92
100
AcDbPolyline
 90
        7
 70
     0
 10
-186.94043
 20
-0.000061
 10
-183.94043
 20
-3.000061
 10
-180.94043
 20
-0.000061
 10
-160.94043
 20
-0.000061
 10
-157.94043
 20
2.999939
 10
-154.94043
 20
-0.000061
 10
-134.94043
 20
-0.000061
  0
LWPOLYLINE
  5
1CC
100
AcDbEntity
  8
LAYER01
370
    25
390
0
  6
DASHDOT
 62
    92
100
AcDbPolyline
 90
        7
 70
     0
 10
-134.94043
 20
-0.000061
 10
-131.94043
 20
-3.000061
 10
-128.94043
 20
-0.000061
 10
-108.94043
 20
-0.000061
 10
-105.94043
 20
2.999939
 10
-102.94043
 20
-0.000061
 10
-97.692627
 20
-0.000061
  0
LWPOLYLINE
  5
1CD
100
AcDbEntity
  8
LAYER02
370
    18
390
0
  6
Continuous
 62
     7
100
AcDbPolyline
 90
        2
 70
     0
 10
-18.792725
 20
-262.151062
 10
-14.692627
 20
-262.151062
  0
LWPOLYLINE
  5
1CF
100
AcDbEntity
  8
LAYER02
370
    18
390
0
  6
Continuous
 62
     7
100
AcDbPolyline
 90
        2
 70
     0
 10
-18.792725
 20
-266.951111
 10
-14.692627
 20
-266.951111
  0
LWPOLYLINE
  5
1D0
100
AcDbEntity
  8
LAYER02
370
    18
390
0
  6
Continuous
 62
     7
100
AcDbPolyline
 90
        7
 70
     1
 10
-13.192627
 20
-260.801086
 10
-13.192627
 20
-268.301086
 42
-0.414214
 10
-14.192627
 20
-269.301086
 10
-14.692627
 20
-269.301086
 10
-14.692627
 20
-259.801086
 10
-14.192627
 20
-259.801086
 42
-0.414214
 10
-13.192627
 20
-260.801086
  0
LWPOLYLINE
  5
1D1
100
AcDbEntity
  8
LAYER02
370
    18
390
0
  6
Continuous
 62
     7
100
AcDbPolyline
 90
        2
 70
     0
 10
-21.83667
 20
-261.351257
 10
-21.83667
 20
-267.259094
  0
LWPOLYLINE
  5
1D2
100
AcDbEntity
  8
LAYER02
370
    13
390
0
  6
Continuous
 62
   213
100
AcDbPolyline
 90
        2
 70
     0
 10
-21.83667
 20
-262.764465
 42
0.626097
 10
-21.83667
 20
-265.845764
  0
LWPOLYLINE
  5
1D3
100
AcDbEntity
  8
LAYER02
370
    13
390
0
  6
Continuous
 62
   213
100
AcDbPolyline
 90
        2
 70
     0
 10
-18.83667
 20
-260.729431
 42
0.423414
 10
-21.83667
 20
-261.351257
  0
LWPOLYLINE
  5
1D4
100
AcDbEntity
  8
LAYER02
370
    13
390
0
  6
Continuous
 62
   213
100
AcDbPolyline
 90
        2
 70
     0
 10
-21.83667
 20
-267.259094
 42
0.423414
 10
-18.83667
 20
-267.880798
  0
LWPOLYLINE
  5
1D5
100
AcDbEntity
  8
LAYER02
370
    18
390
0
  6
Continuous
 62
     7
100
AcDbPolyline
 90
        2
 70
     0
 10
-210.092773
 20
-75.651062
 10
-210.092773
 20
-71.551086
  0
LWPOLYLINE
  5
1D6
100
AcDbEntity
  8
LAYER02
370
    18
390
0
  6
Continuous
 62
     7
100
AcDbPolyline
 90
        2
 70
     0
 10
-205.29248
 20
-75.651062
 10
-205.29248
 20
-71.551086
  0
LWPOLYLINE
  5
1D7
100
AcDbEntity
  8
LAYER02
370
    18
390
0
  6
Continuous
 62
     7
100
AcDbPolyline
 90
        2
 70
     0
 10
-210.892578
 20
-78.695007
 10
-204.984863
 20
-78.695007
  0
LWPOLYLINE
  5
1D8
100
AcDbEntity
  8
LAYER02
370
    13
390
0
  6
Continuous
 62
   213
100
AcDbPolyline
 90
        2
 70
     0
 10
-209.479004
 20
-78.695007
 42
0.626098
 10
-206.397949
 20
-78.695007
  0
LWPOLYLINE
  5
1D9
100
AcDbEntity
  8
LAYER02
370
    13
390
0
  6
Continuous
 62
   213
100
AcDbPolyline
 90
        2
 70
     0
 10
-211.51416
 20
-75.695007
 42
0.423414
 10
-210.892578
 20
-78.695007
  0
LWPOLYLINE
  5
1DA
100
AcDbEntity
  8
LAYER02
370
    13
390
0
  6
Continuous
 62
   213
100
AcDbPolyline
 90
        2
 70
     0
 10
-204.984375
 20
-78.695007
 42
0.423414
 10
-204.362793
 20
-75.695007
  0
INSERT
  5
1E7
100
AcDbEntity
  8
LAYER01
390
0
100
AcDbBlockReference
  2
_BOHRBSB_U_77
 10
-207.692871
 20
-71.551025
 30
0.0
  0
INSERT
  5
1F4
100
AcDbEntity
  8
LAYER01
390
0
100
AcDbBlockReference
  2
_BOHR_FV_U_77
 10
-14.692627
 20
-264.551025
 30
0.0
 50
270.0
  0
LWPOLYLINE
  5
1F5
100
AcDbEntity
  8
LAYER01
370
    25
390
0
  6
Continuous
 62
    92
100
AcDbPolyline
 90
        2
 70
     0
 10
-121.781738
 20
-320.910828
 10
-53.433594
 20
-320.910828
  0
INSERT
  5
205
100
AcDbEntity
  8
LAYER01
390
0
100
AcDbBlockReference
  2
_D---BSC_U_77
 10
-2422.800781
 20
-333.499573
 30
0.0
  0
INSERT
  5
215
100
AcDbEntity
  8
LAYER01
390
0
100
AcDbBlockReference
  2
_D---BSD_U_77
 10
-2422.800781
 20
-333.499573
 30
0.0
  0
LWPOLYLINE
  5
216
100
AcDbEntity
  8
LAYER01
370
    35
390
0
  6
Continuous
 62
   134
100
AcDbPolyline
 90
        2
 70
     0
 10
-197.692871
 20
-284.551086
 10
-197.692871
 20
-234.551086
  0
LWPOLYLINE
  5
217
100
AcDbEntity
  8
LAYER01
370
    35
390
0
  6
Continuous
 62
   134
100
AcDbPolyline
 90
        2
 70
     0
 10
-199.692871
 20
-282.551086
 10
-199.692871
 20
-234.551086
  0
LWPOLYLINE
  5
218
100
AcDbEntity
  8
LAYER01
370
    35
390
0
  6
Continuous
 62
   134
100
AcDbPolyline
 90
        2
 70
     0
 10
-199.692871
 20
-234.551086
 10
-197.692871
 20
-234.551086
  0
INSERT
  5
21D
100
AcDbEntity
  8
LAYER01
390
0
100
AcDbBlockReference
  2
T-ROCKP__U_M_77
 10
-77.800781
 20
-320.910767
 30
0.0
 50
180.0
  0
INSERT
  5
224
100
AcDbEntity
  8
LAYER01
390
0
100
AcDbBlockReference
  2
T-ACHTER_U_77
 10
-232.800781
 20
-364.750183
 30
0.0
  0
INSERT
  5
229
100
AcDbEntity
  8
LAYER01
390
0
100
AcDbBlockReference
  2
T-VENTIL_U_77
 10
-182.800781
 20
-274.750183
 30
0.0
  0
LWPOLYLINE
  5
22A
102
{ACAD_REACTORS
330
22B
102
}
100
AcDbEntity
  8
HATCH_REACTORS
390
0
100
AcDbPolyline
 90
        4
 70
     1
 10
-235.692871
 20
-253.701111
 10
-227.692871
 20
-253.701111
 10
-227.692871
 20
-274.551086
 10
-235.692871
 20
-274.551086
  0
HATCH
  5
22B
100
AcDbEntity
  8
LAYER49
370
    13
390
0
  6
Continuous
 62
   213
100
AcDbHatch
 10
0.0
 20
0.0
 30
0.0
210
0.0
220
0.0
230
1.0
  2
~A--G#X~
 70
     0
 71
     1
 91
        1
 92
        2
 72
     0
 73
     1
 93
        4
 10
-235.69287109375
 20
-253.70111083984375
 10
-227.69287109375
 20
-253.70111083984375
 10
-227.69287109375
 20
-274.55108642578125
 10
-235.69287109375
 20
-274.55108642578125
 97
        1
330
22A
 75
     0
 76
     0
 52
0.0
 41
1.0
 77
     0
 78
     1
 53
360.0
 43
-651.049133
 44
-4222.89209
 45
0.0000000000000001
 46
0.300000011920929
 79
     0
 98
        0
  0
LWPOLYLINE
  5
22D
100
AcDbEntity
  8
LAYER49
370
    25
390
0
  6
Continuous
 62
    92
100
AcDbPolyline
 90
        2
 70
     0
 10
-227.692871
 20
-253.701111
 10
-227.692871
 20
-274.551086
  0
LWPOLYLINE
  5
22E
100
AcDbEntity
  8
LAYER49
370
    25
390
0
  6
Continuous
 62
    92
100
AcDbPolyline
 90
        2
 70
     0
 10
-235.692871
 20
-274.551086
 10
-235.692871
 20
-253.701111
  0
LWPOLYLINE
  5
22F
100
AcDbEntity
  8
LAYER49
370
    25
390
0
  6
Continuous
 62
    92
100
AcDbPolyline
 90
        2
 70
     0
 10
-235.692871
 20
-253.701111
 10
-227.692871
 20
-253.701111
  0
LWPOLYLINE
  5
230
100
AcDbEntity
  8
LAYER49
370
    25
390
0
  6
Continuous
 62
    92
100
AcDbPolyline
 90
        2
 70
     0
 10
-227.692871
 20
-274.551086
 10
-235.692871
 20
-274.551086
  0
LWPOLYLINE
  5
231
102
{ACAD_REACTORS
330
232
102
}
100
AcDbEntity
  8
HATCH_REACTORS
390
0
100
AcDbPolyline
 90
        4
 70
     1
 10
-235.692871
 20
-59.651062
 10
-227.692871
 20
-59.651062
 10
-227.692871
 20
-245.401062
 10
-235.692871
 20
-245.401062
  0
HATCH
  5
232
100
AcDbEntity
  8
LAYER49
370
    13
390
0
  6
Continuous
 62
   213
100
AcDbHatch
 10
0.0
 20
0.0
 30
0.0
210
0.0
220
0.0
230
1.0
  2
~A--G#X~
 70
     0
 71
     1
 91
        1
 92
        2
 72
     0
 73
     1
 93
        4
 10
-235.69287109375
 20
-59.65106201171875
 10
-227.69287109375
 20
-59.65106201171875
 10
-227.69287109375
 20
-245.40106201171875
 10
-235.69287109375
 20
-245.40106201171875
 97
        1
330
231
 75
     0
 76
     0
 52
0.0
 41
1.0
 77
     0
 78
     1
 53
360.0
 43
-845.099121
 44
-4222.89209
 45
0.0000000000000001
 46
0.300000011920929
 79
     0
 98
        0
  0
LWPOLYLINE
  5
233
100
AcDbEntity
  8
LAYER49
370
    25
390
0
  6
Continuous
 62
    92
100
AcDbPolyline
 90
        2
 70
     0
 10
-227.692871
 20
-59.651062
 10
-227.692871
 20
-245.401062
  0
LWPOLYLINE
  5
234
100
AcDbEntity
  8
LAYER49
370
    25
390
0
  6
Continuous
 62
    92
100
AcDbPolyline
 90
        2
 70
     0
 10
-235.692871
 20
-245.401062
 10
-235.692871
 20
-59.651062
  0
LWPOLYLINE
  5
235
100
AcDbEntity
  8
LAYER49
370
    25
390
0
  6
Continuous
 62
    92
100
AcDbPolyline
 90
        2
 70
     0
 10
-235.692871
 20
-59.651062
 10
-227.692871
 20
-59.651062
  0
LWPOLYLINE
  5
236
100
AcDbEntity
  8
LAYER49
370
    25
390
0
  6
Continuous
 62
    92
100
AcDbPolyline
 90
        2
 70
     0
 10
-227.692871
 20
-245.401062
 10
-235.692871
 20
-245.401062
  0
LWPOLYLINE
  5
237
102
{ACAD_REACTORS
330
238
102
}
100
AcDbEntity
  8
HATCH_REACTORS
390
0
100
AcDbPolyline
 90
        4
 70
     1
 10
-235.692871
 20
-0.000061
 10
-227.692871
 20
-0.000061
 10
-227.692871
 20
-51.651062
 10
-235.692871
 20
-51.651062
  0
HATCH
  5
238
100
AcDbEntity
  8
LAYER49
370
    13
390
0
  6
Continuous
 62
   213
100
AcDbHatch
 10
0.0
 20
0.0
 30
0.0
210
0.0
220
0.0
230
1.0
  2
~A--G#X~
 70
     0
 71
     1
 91
        1
 92
        2
 72
     0
 73
     1
 93
        4
 10
-235.69287109375
 20
-0.00006103515625
 10
-227.69287109375
 20
-0.00006103515625
 10
-227.69287109375
 20
-51.65106201171875
 10
-235.69287109375
 20
-51.65106201171875
 97
        1
330
237
 75
     0
 76
     0
 52
0.0
 41
1.0
 77
     0
 78
     1
 53
360.0
 43
-904.750183
 44
-4222.89209
 45
0.0000000000000001
 46
0.300000011920929
 79
     0
 98
        0
  0
LWPOLYLINE
  5
239
100
AcDbEntity
  8
LAYER49
370
    25
390
0
  6
Continuous
 62
    92
100
AcDbPolyline
 90
        2
 70
     0
 10
-227.692871
 20
-0.000061
 10
-227.692871
 20
-51.651062
  0
LWPOLYLINE
  5
23A
100
AcDbEntity
  8
LAYER49
370
    25
390
0
  6
Continuous
 62
    92
100
AcDbPolyline
 90
        2
 70
     0
 10
-235.692871
 20
-51.651062
 10
-235.692871
 20
-0.000061
  0
LWPOLYLINE
  5
23B
100
AcDbEntity
  8
LAYER49
370
    25
390
0
  6
Continuous
 62
    92
100
AcDbPolyline
 90
        2
 70
     0
 10
-235.692871
 20
-0.000061
 10
-227.692871
 20
-0.000061
  0
LWPOLYLINE
  5
23C
100
AcDbEntity
  8
LAYER49
370
    25
390
0
  6
Continuous
 62
    92
100
AcDbPolyline
 90
        2
 70
     0
 10
-227.692871
 20
-51.651062
 10
-235.692871
 20
-51.651062
  0
LWPOLYLINE
  5
23D
102
{ACAD_REACTORS
330
23E
102
}
100
AcDbEntity
  8
HATCH_REACTORS
390
0
100
AcDbPolyline
 90
        4
 70
     1
 10
0.508057
 20
-292.551086
 10
0.508057
 20
-284.551086
 10
92.091553
 20
-284.551086
 10
92.091553
 20
-292.551086
  0
HATCH
  5
23E
100
AcDbEntity
  8
LAYER49
370
    13
390
0
  6
Continuous
 62
   213
100
AcDbHatch
 10
0.0
 20
0.0
 30
0.0
210
0.0
220
0.0
230
1.0
  2
~A--G#X~
 70
     0
 71
     1
 91
        1
 92
        2
 72
     0
 73
     1
 93
        4
 10
0.508056640625
 20
-292.55108642578125
 10
0.508056640625
 20
-284.55108642578125
 10
92.091552734375
 20
-284.55108642578125
 10
92.091552734375
 20
-292.55108642578125
 97
        1
330
23D
 75
     0
 76
     0
 52
0.0
 41
1.0
 77
     0
 78
     1
 53
90.0
 43
-612.199158
 44
-3986.691162
 45
-0.300000011920929
 46
0.0
 79
     0
 98
        0
  0
LWPOLYLINE
  5
23F
100
AcDbEntity
  8
LAYER49
370
    25
390
0
  6
Continuous
 62
    92
100
AcDbPolyline
 90
        2
 70
     0
 10
0.508057
 20
-284.551086
 10
92.091553
 20
-284.551086
  0
LWPOLYLINE
  5
240
100
AcDbEntity
  8
LAYER49
370
    25
390
0
  6
Continuous
 62
    92
100
AcDbPolyline
 90
        2
 70
     0
 10
92.091553
 20
-292.551086
 10
0.508057
 20
-292.551086
  0
LWPOLYLINE
  5
241
100
AcDbEntity
  8
LAYER49
370
    25
390
0
  6
Continuous
 62
    92
100
AcDbPolyline
 90
        2
 70
     0
 10
0.508057
 20
-292.551086
 10
0.508057
 20
-284.551086
  0
LWPOLYLINE
  5
242
100
AcDbEntity
  8
LAYER49
370
    25
390
0
  6
Continuous
 62
    92
100
AcDbPolyline
 90
        2
 70
     0
 10
92.091553
 20
-284.551086
 10
92.091553
 20
-292.551086
  0
LWPOLYLINE
  5
243
102
{ACAD_REACTORS
330
244
102
}
100
AcDbEntity
  8
HATCH_REACTORS
390
0
100
AcDbPolyline
 90
        4
 70
     1
 10
-206.692871
 20
-292.551086
 10
-206.692871
 20
-284.551086
 10
-4.291992
 20
-284.551086
 10
-4.291992
 20
-292.551086
  0
HATCH
  5
244
100
AcDbEntity
  8
LAYER49
370
    13
390
0
  6
Continuous
 62
   213
100
AcDbHatch
 10
0.0
 20
0.0
 30
0.0
210
0.0
220
0.0
230
1.0
  2
~A--G#X~
 70
     0
 71
     1
 91
        1
 92
        2
 72
     0
 73
     1
 93
        4
 10
-206.69287109375
 20
-292.55108642578125
 10
-206.69287109375
 20
-284.55108642578125
 10
-4.2919921875
 20
-284.55108642578125
 10
-4.2919921875
 20
-292.55108642578125
 97
        1
330
243
 75
     0
 76
     0
 52
0.0
 41
1.0
 77
     0
 78
     1
 53
90.0
 43
-612.199158
 44
-4193.89209
 45
-0.300000011920929
 46
0.0
 79
     0
 98
        0
  0
LWPOLYLINE
  5
245
100
AcDbEntity
  8
LAYER49
370
    25
390
0
  6
Continuous
 62
    92
100
AcDbPolyline
 90
        2
 70
     0
 10
-206.692871
 20
-284.551086
 10
-4.291992
 20
-284.551086
  0
LWPOLYLINE
  5
246
100
AcDbEntity
  8
LAYER49
370
    25
390
0
  6
Continuous
 62
    92
100
AcDbPolyline
 90
        2
 70
     0
 10
-4.291992
 20
-292.551086
 10
-206.692871
 20
-292.551086
  0
LWPOLYLINE
  5
247
100
AcDbEntity
  8
LAYER49
370
    25
390
0
  6
Continuous
 62
    92
100
AcDbPolyline
 90
        2
 70
     0
 10
-206.692871
 20
-292.551086
 10
-206.692871
 20
-284.551086
  0
LWPOLYLINE
  5
248
100
AcDbEntity
  8
LAYER49
370
    25
390
0
  6
Continuous
 62
    92
100
AcDbPolyline
 90
        2
 70
     0
 10
-4.291992
 20
-284.551086
 10
-4.291992
 20
-292.551086
  0
LWPOLYLINE
  5
249
102
{ACAD_REACTORS
330
24A
102
}
100
AcDbEntity
  8
HATCH_REACTORS
390
0
100
AcDbPolyline
 90
        4
 70
     1
 10
-238.692871
 20
-292.551086
 10
-238.692871
 20
-284.551086
 10
-214.692871
 20
-284.551086
 10
-214.692871
 20
-292.551086
  0
HATCH
  5
24A
100
AcDbEntity
  8
LAYER49
370
    13
390
0
  6
Continuous
 62
   213
100
AcDbHatch
 10
0.0
 20
0.0
 30
0.0
210
0.0
220
0.0
230
1.0
  2
~A--G#X~
 70
     0
 71
     1
 91
        1
 92
        2
 72
     0
 73
     1
 93
        4
 10
-238.69287109375
 20
-292.55108642578125
 10
-238.69287109375
 20
-284.55108642578125
 10
-214.69287109375
 20
-284.55108642578125
 10
-214.69287109375
 20
-292.55108642578125
 97
        1
330
249
 75
     0
 76
     0
 52
0.0
 41
1.0
 77
     0
 78
     1
 53
90.0
 43
-612.199158
 44
-4225.89209
 45
-0.300000011920929
 46
0.0
 79
     0
 98
        0
  0
LWPOLYLINE
  5
24B
100
AcDbEntity
  8
LAYER49
370
    25
390
0
  6
Continuous
 62
    92
100
AcDbPolyline
 90
        2
 70
     0
 10
-238.692871
 20
-284.551086
 10
-214.692871
 20
-284.551086
  0
LWPOLYLINE
  5
24C
100
AcDbEntity
  8
LAYER49
370
    25
390
0
  6
Continuous
 62
    92
100
AcDbPolyline
 90
        2
 70
     0
 10
-214.692871
 20
-292.551086
 10
-238.692871
 20
-292.551086
  0
LWPOLYLINE
  5
24D
100
AcDbEntity
  8
LAYER49
370
    25
390
0
  6
Continuous
 62
    92
100
AcDbPolyline
 90
        2
 70
     0
 10
-238.692871
 20
-292.551086
 10
-238.692871
 20
-284.551086
  0
LWPOLYLINE
  5
24E
100
AcDbEntity
  8
LAYER49
370
    25
390
0
  6
Continuous
 62
    92
100
AcDbPolyline
 90
        2
 70
     0
 10
-214.692871
 20
-284.551086
 10
-214.692871
 20
-292.551086
  0
ENDBLK
  5
24F
100
AcDbEntity
  8
0
390
0
100
AcDbBlockEnd
  0
BLOCK
  5
39
100
AcDbEntity
  8
0
390
0
100
AcDbBlockBegin
  2
HATCH-DY_U_77
 70
     0
 10
0.0
 20
0.0
 30
0.0
  3
HATCH-DY_U_77
  1

  0
LWPOLYLINE
  5
3A
100
AcDbEntity
  8
LAYER01
370
    13
390
0
  6
Continuous
 62
   213
100
AcDbPolyline
 90
        2
 70
     0
 10
2404.008057
 20
58.047485
 10
2405.608154
 20
59.647461
  0
LWPOLYLINE
  5
3B
100
AcDbEntity
  8
LAYER01
370
    13
390
0
  6
Continuous
 62
   213
100
AcDbPolyline
 90
        2
 70
     0
 10
2404.008057
 20
60.741455
 10
2405.608154
 20
62.341553
  0
LWPOLYLINE
  5
3C
100
AcDbEntity
  8
LAYER01
370
    13
390
0
  6
Continuous
 62
   213
100
AcDbPolyline
 90
        2
 70
     0
 10
2404.008057
 20
63.435547
 10
2405.608154
 20
65.035522
  0
LWPOLYLINE
  5
3D
100
AcDbEntity
  8
LAYER01
370
    13
390
0
  6
Continuous
 62
   213
100
AcDbPolyline
 90
        2
 70
     0
 10
2404.008057
 20
66.129639
 10
2405.326904
 20
67.448486
  0
LWPOLYLINE
  5
3E
100
AcDbEntity
  8
LAYER01
370
    13
390
0
  6
Continuous
 62
   213
100
AcDbPolyline
 90
        2
 70
     0
 10
2404.02002
 20
71.529785
 10
2405.608154
 20
73.117798
  0
LWPOLYLINE
  5
3F
100
AcDbEntity
  8
LAYER01
370
    13
390
0
  6
Continuous
 62
   213
100
AcDbPolyline
 90
        2
 70
     0
 10
2404.008057
 20
74.211914
 10
2405.608154
 20
75.81189
  0
LWPOLYLINE
  5
40
100
AcDbEntity
  8
LAYER01
370
    13
390
0
  6
Continuous
 62
   213
100
AcDbPolyline
 90
        2
 70
     0
 10
2404.008057
 20
76.906006
 10
2405.608154
 20
78.505981
  0
LWPOLYLINE
  5
41
100
AcDbEntity
  8
LAYER01
370
    13
390
0
  6
Continuous
 62
   213
100
AcDbPolyline
 90
        2
 70
     0
 10
2404.008057
 20
79.600098
 10
2405.608154
 20
81.200073
  0
LWPOLYLINE
  5
42
100
AcDbEntity
  8
LAYER01
370
    13
390
0
  6
Continuous
 62
   213
100
AcDbPolyline
 90
        2
 70
     0
 10
2404.008057
 20
82.294067
 10
2405.608154
 20
83.894165
  0
LWPOLYLINE
  5
43
100
AcDbEntity
  8
LAYER01
370
    13
390
0
  6
Continuous
 62
   213
100
AcDbPolyline
 90
        2
 70
     0
 10
2404.008057
 20
84.988159
 10
2405.608154
 20
86.588257
  0
LWPOLYLINE
  5
44
100
AcDbEntity
  8
LAYER01
370
    13
390
0
  6
Continuous
 62
   213
100
AcDbPolyline
 90
        2
 70
     0
 10
2404.008057
 20
87.682251
 10
2405.608154
 20
89.282227
  0
LWPOLYLINE
  5
45
100
AcDbEntity
  8
LAYER01
370
    13
390
0
  6
Continuous
 62
   213
100
AcDbPolyline
 90
        2
 70
     0
 10
2404.008057
 20
90.376343
 10
2405.608154
 20
91.976318
  0
LWPOLYLINE
  5
46
100
AcDbEntity
  8
LAYER01
370
    13
390
0
  6
Continuous
 62
   213
100
AcDbPolyline
 90
        2
 70
     0
 10
2404.008057
 20
93.070435
 10
2405.608154
 20
94.67041
  0
LWPOLYLINE
  5
47
100
AcDbEntity
  8
LAYER01
370
    13
390
0
  6
Continuous
 62
   213
100
AcDbPolyline
 90
        2
 70
     0
 10
2404.008057
 20
95.764526
 10
2405.608154
 20
97.364502
  0
LWPOLYLINE
  5
48
100
AcDbEntity
  8
LAYER01
370
    13
390
0
  6
Continuous
 62
   213
100
AcDbPolyline
 90
        2
 70
     0
 10
2404.008057
 20
98.458618
 10
2405.608154
 20
100.058594
  0
LWPOLYLINE
  5
49
100
AcDbEntity
  8
LAYER01
370
    13
390
0
  6
Continuous
 62
   213
100
AcDbPolyline
 90
        2
 70
     0
 10
2404.008057
 20
101.15271
 10
2405.608154
 20
102.752686
  0
LWPOLYLINE
  5
4A
100
AcDbEntity
  8
LAYER01
370
    13
390
0
  6
Continuous
 62
   213
100
AcDbPolyline
 90
        2
 70
     0
 10
2404.008057
 20
103.84668
 10
2405.608154
 20
105.446777
  0
LWPOLYLINE
  5
4B
100
AcDbEntity
  8
LAYER01
370
    13
390
0
  6
Continuous
 62
   213
100
AcDbPolyline
 90
        2
 70
     0
 10
2404.008057
 20
106.540771
 10
2405.608154
 20
108.140869
  0
LWPOLYLINE
  5
4C
100
AcDbEntity
  8
LAYER01
370
    13
390
0
  6
Continuous
 62
   213
100
AcDbPolyline
 90
        2
 70
     0
 10
2404.008057
 20
55.353394
 10
2405.608154
 20
56.953369
  0
LWPOLYLINE
  5
4D
100
AcDbEntity
  8
LAYER01
370
    13
390
0
  6
Continuous
 62
   213
100
AcDbPolyline
 90
        2
 70
     0
 10
2404.008057
 20
52.659302
 10
2405.608154
 20
54.259277
  0
LWPOLYLINE
  5
4E
100
AcDbEntity
  8
LAYER01
370
    13
390
0
  6
Continuous
 62
   213
100
AcDbPolyline
 90
        2
 70
     0
 10
2404.008057
 20
49.96521
 10
2405.608154
 20
51.565186
  0
LWPOLYLINE
  5
4F
100
AcDbEntity
  8
LAYER01
370
    13
390
0
  6
Continuous
 62
   213
100
AcDbPolyline
 90
        2
 70
     0
 10
2405.685547
 20
48.948486
 10
2407.2854
 20
50.548462
  0
LWPOLYLINE
  5
50
100
AcDbEntity
  8
LAYER01
370
    13
390
0
  6
Continuous
 62
   213
100
AcDbPolyline
 90
        2
 70
     0
 10
2408.379639
 20
48.948486
 10
2409.979492
 20
50.548462
  0
LWPOLYLINE
  5
51
100
AcDbEntity
  8
LAYER01
370
    13
390
0
  6
Continuous
 62
   213
100
AcDbPolyline
 90
        2
 70
     0
 10
2411.07373
 20
48.948486
 10
2412.673584
 20
50.548462
  0
LWPOLYLINE
  5
52
100
AcDbEntity
  8
LAYER01
370
    13
390
0
  6
Continuous
 62
   213
100
AcDbPolyline
 90
        2
 70
     0
 10
2413.767822
 20
48.948486
 10
2415.367676
 20
50.548462
  0
LWPOLYLINE
  5
53
100
AcDbEntity
  8
LAYER01
370
    13
390
0
  6
Continuous
 62
   213
100
AcDbPolyline
 90
        2
 70
     0
 10
2416.461914
 20
48.948486
 10
2418.061768
 20
50.548462
  0
LWPOLYLINE
  5
54
100
AcDbEntity
  8
LAYER01
370
    13
390
0
  6
Continuous
 62
   213
100
AcDbPolyline
 90
        2
 70
     0
 10
2419.156006
 20
48.948486
 10
2420.755859
 20
50.548462
  0
LWPOLYLINE
  5
55
100
AcDbEntity
  8
LAYER01
370
    13
390
0
  6
Continuous
 62
   213
100
AcDbPolyline
 90
        2
 70
     0
 10
2421.849854
 20
48.948486
 10
2423.449951
 20
50.548462
  0
LWPOLYLINE
  5
56
100
AcDbEntity
  8
LAYER01
370
    13
390
0
  6
Continuous
 62
   213
100
AcDbPolyline
 90
        2
 70
     0
 10
2424.543945
 20
48.948486
 10
2426.144043
 20
50.548462
  0
LWPOLYLINE
  5
57
100
AcDbEntity
  8
LAYER01
370
    13
390
0
  6
Continuous
 62
   213
100
AcDbPolyline
 90
        2
 70
     0
 10
2427.238037
 20
48.948486
 10
2428.838135
 20
50.548462
  0
LWPOLYLINE
  5
58
100
AcDbEntity
  8
LAYER01
370
    13
390
0
  6
Continuous
 62
   213
100
AcDbPolyline
 90
        2
 70
     0
 10
2429.932129
 20
48.948486
 10
2431.532227
 20
50.548462
  0
LWPOLYLINE
  5
59
100
AcDbEntity
  8
LAYER01
370
    13
390
0
  6
Continuous
 62
   213
100
AcDbPolyline
 90
        2
 70
     0
 10
2432.626221
 20
48.948486
 10
2434.213379
 20
50.535522
  0
LWPOLYLINE
  5
5A
100
AcDbEntity
  8
LAYER01
370
    13
390
0
  6
Continuous
 62
   213
100
AcDbPolyline
 90
        2
 70
     0
 10
2435.320313
 20
48.948486
 10
2436.747314
 20
50.375366
  0
LWPOLYLINE
  5
5B
100
AcDbEntity
  8
LAYER01
370
    13
390
0
  6
Continuous
 62
   213
100
AcDbPolyline
 90
        2
 70
     0
 10
2438.014404
 20
48.948486
 10
2439.28125
 20
50.215332
  0
LWPOLYLINE
  5
5C
100
AcDbEntity
  8
LAYER01
370
    13
390
0
  6
Continuous
 62
   213
100
AcDbPolyline
 90
        2
 70
     0
 10
2440.708496
 20
48.948486
 10
2441.815186
 20
50.055176
  0
LWPOLYLINE
  5
5D
100
AcDbEntity
  8
LAYER01
370
    13
390
0
  6
Continuous
 62
   213
100
AcDbPolyline
 90
        2
 70
     0
 10
2443.402588
 20
48.948486
 10
2443.998535
 20
49.544556
  0
ENDBLK
  5
5E
100
AcDbEntity
  8
0
390
0
100
AcDbBlockEnd
  0
BLOCK
  5
6E
100
AcDbEntity
  8
0
390
0
100
AcDbBlockBegin
  2
X80_F_US_U_77
 70
     0
 10
0.0
 20
0.0
 30
0.0
  3
X80_F_US_U_77
  1

  0
LWPOLYLINE
  5
6F
100
AcDbEntity
  8
LAYER01
370
    35
390
0
  6
Continuous
 62
   134
100
AcDbPolyline
 90
        2
 70
     0
 10
0.000061
 20
-9.25
 10
3.799988
 20
-9.25
  0
LWPOLYLINE
  5
70
100
AcDbEntity
  8
LAYER01
370
    35
390
0
  6
Continuous
 62
   134
100
AcDbPolyline
 90
        2
 70
     0
 10
2.200012
 20
-9.25
 10
2.200012
 20
9.25
  0
LWPOLYLINE
  5
71
100
AcDbEntity
  8
LAYER01
370
    35
390
0
  6
Continuous
 62
   134
100
AcDbPolyline
 90
        2
 70
     0
 10
2.200012
 20
9.25
 10
0.000061
 20
9.25
  0
LWPOLYLINE
  5
72
100
AcDbEntity
  8
LAYER01
370
    35
390
0
  6
Continuous
 62
   134
100
AcDbPolyline
 90
        2
 70
     0
 10
3.799988
 20
-9.25
 10
3.799988
 20
9.25
  0
LWPOLYLINE
  5
73
100
AcDbEntity
  8
LAYER01
370
    35
390
0
  6
Continuous
 62
   134
100
AcDbPolyline
 90
        2
 70
     0
 10
3.799988
 20
9.25
 10
2.200012
 20
9.25
  0
INSERT
  5
81
100
AcDbEntity
  8
LAYER01
390
0
100
AcDbBlockReference
  2
2--C2EV-CI_U_77
 10
10.599915
 20
0.0
 30
0.0
 50
180.0
  0
ENDBLK
  5
82
100
AcDbEntity
  8
0
390
0
100
AcDbBlockEnd
  0
BLOCK
  5
75
100
AcDbEntity
  8
0
390
0
100
AcDbBlockBegin
  2
2--C2EV-CI_U_77
 70
     0
 10
0.0
 20
0.0
 30
0.0
  3
2--C2EV-CI_U_77
  1

  0
LWPOLYLINE
  5
76
100
AcDbEntity
  8
LAYER21
370
    13
390
0
  6
Continuous
 62
   213
100
AcDbPolyline
 90
        4
 70
     1
 10
6.799927
 20
7.509033
 10
6.799927
 20
-7.509033
 10
0.0
 20
-7.509033
 10
0.0
 20
7.509033
  0
LWPOLYLINE
  5
78
100
AcDbEntity
  8
LAYER21
370
    13
390
0
  6
Continuous
 62
   213
100
AcDbPolyline
 90
        8
 70
     1
 10
5.987427
 20
3.754395
 10
6.190674
 20
3.21875
 42
-0.18335
 10
6.190674
 20
-3.21875
 10
5.987427
 20
-3.754395
 10
0.8125
 20
-3.754395
 10
0.609985
 20
-3.220947
 42
-0.183462
 10
0.61145
 20
3.220459
 10
0.8125
 20
3.749512
  0
LWPOLYLINE
  5
79
100
AcDbEntity
  8
LAYER21
370
    13
390
0
  6
Continuous
 62
   213
100
AcDbPolyline
 90
        8
 70
     1
 10
5.987427
 20
-3.749512
 10
6.338013
 20
-4.384033
 42
-0.258495
 10
6.335327
 20
-6.877686
 10
5.987427
 20
-7.50415
 10
0.8125
 20
-7.50415
 10
0.4646
 20
-6.877686
 42
-0.258495
 10
0.461914
 20
-4.384033
 10
0.8125
 20
-3.749512
  0
LWPOLYLINE
  5
7A
100
AcDbEntity
  8
LAYER21
370
    13
390
0
  6
Continuous
 62
   213
100
AcDbPolyline
 90
        8
 70
     1
 10
5.987427
 20
7.513916
 10
6.338013
 20
6.879395
 42
-0.258495
 10
6.335327
 20
4.385498
 10
5.987427
 20
3.759277
 10
0.8125
 20
3.759277
 10
0.4646
 20
4.385498
 42
-0.258495
 10
0.461914
 20
6.879395
 10
0.8125
 20
7.513916
  0
LWPOLYLINE
  5
7B
100
AcDbEntity
  8
LAYER21
370
    13
390
0
  6
Continuous
 62
   213
100
AcDbPolyline
 90
        2
 70
     0
 10
5.987427
 20
3.754395
 10
0.8125
 20
3.754395
  0
LWPOLYLINE
  5
7C
100
AcDbEntity
  8
LAYER21
370
    13
390
0
  6
Continuous
 62
   213
100
AcDbPolyline
 90
        2
 70
     0
 10
5.987427
 20
-3.754395
 10
0.8125
 20
-3.754395
  0
LWPOLYLINE
  5
7D
100
AcDbEntity
  8
LAYER21
370
    13
390
0
  6
Continuous
 62
   213
100
AcDbPolyline
 90
        2
 70
     0
 10
-0.612183
 20
0.0
 10
7.412109
 20
0.0
  0
LWPOLYLINE
  5
7E
100
AcDbEntity
  8
LAYER21
370
    13
390
0
  6
Continuous
 62
   213
100
AcDbPolyline
 90
        5
 70
     1
 10
6.799927
 20
4.002441
 10
86.124146
 20
4.002441
 10
96.799927
 20
0.0
 10
86.124146
 20
-4.002441
 10
6.799927
 20
-4.002441
  0
LWPOLYLINE
  5
7F
100
AcDbEntity
  8
LAYER21
370
    13
390
0
  6
Continuous
 62
   213
100
AcDbPolyline
 90
        2
 70
     0
 10
-6.577148
 20
0.0
 10
110.911255
 20
0.0
  0
ENDBLK
  5
80
100
AcDbEntity
  8
0
390
0
100
AcDbBlockEnd
  0
BLOCK
  5
85
100
AcDbEntity
  8
0
390
0
100
AcDbBlockBegin
  2
_D---BRW_U_77
 70
     0
 10
0.0
 20
0.0
 30
0.0
  3
_D---BRW_U_77
  1

  0
LWPOLYLINE
  5
86
100
AcDbEntity
  8
LAYER01
370
    18
390
0
  6
Continuous
 62
     7
100
AcDbPolyline
 90
        2
 70
     0
 10
2498.945313
 20
48.94873
 10
2511.45166
 20
48.94873
  0
LWPOLYLINE
  5
87
100
AcDbEntity
  8
LAYER01
370
    18
390
0
  6
Continuous
 62
     7
100
AcDbPolyline
 90
        2
 70
     0
 10
2490.802979
 20
78.94873
 10
2511.45166
 20
78.94873
  0
LWPOLYLINE
  5
88
100
AcDbEntity
  8
LAYER01
370
    18
390
0
  6
Continuous
 62
     7
100
AcDbPolyline
 90
        2
 70
     0
 10
2509.45166
 20
53.94873
 10
2509.45166
 20
73.94873
  0
LWPOLYLINE
  5
89
102
{ACAD_REACTORS
330
8A
102
}
100
AcDbEntity
  8
HATCH_REACTORS
390
0
100
AcDbPolyline
 90
        3
 70
     1
 10
2510.285156
 20
53.94873
 10
2509.45166
 20
48.94873
 10
2508.618408
 20
53.94873
  0
HATCH
  5
8A
100
AcDbEntity
  8
LAYER01
370
     5
390
0
  6
Continuous
 62
     7
100
AcDbHatch
 10
0.0
 20
0.0
 30
0.0
210
0.0
220
0.0
230
1.0
  2
_L-O---1
 70
     1
 71
     1
 91
        1
 92
        2
 72
     0
 73
     1
 93
        3
 10
2510.28515625
 20
53.94873046875
 10
2509.45166015625
 20
48.94873046875
 10
2508.618408203125
 20
53.94873046875
 97
        1
330
89
 75
     0
 76
     0
 98
        0
  0
LWPOLYLINE
  5
8B
102
{ACAD_REACTORS
330
8C
102
}
100
AcDbEntity
  8
HATCH_REACTORS
390
0
100
AcDbPolyline
 90
        3
 70
     1
 10
2510.285156
 20
73.94873
 10
2508.618408
 20
73.94873
 10
2509.45166
 20
78.94873
  0
HATCH
  5
8C
100
AcDbEntity
  8
LAYER01
370
     5
390
0
  6
Continuous
 62
     7
100
AcDbHatch
 10
0.0
 20
0.0
 30
0.0
210
0.0
220
0.0
230
1.0
  2
_L-O---1
 70
     1
 71
     1
 91
        1
 92
        2
 72
     0
 73
     1
 93
        3
 10
2510.28515625
 20
73.94873046875
 10
2508.618408203125
 20
73.94873046875
 10
2509.45166015625
 20
78.94873046875
 97
        1
330
8B
 75
     0
 76
     0
 98
        0
  0
MTEXT
  5
8D
100
AcDbEntity
  8
LAYER01
390
0
  6
Continuous
 62
     7
100
AcDbMText
 10
2506.131592
 20
58.306152
 30
0.0
 40
3.24
 41
0.0
 71
     7
 72
     1
  1
{\fArial|b0|i0|c12|p0;_        }
 11
0.0
 21
1.0
 31
0.0
 73
     1
 44
1.333333
  0
MTEXT
  5
8E
100
AcDbEntity
  8
LAYER01
390
0
  6
Continuous
 62
     7
100
AcDbMText
 10
2506.831543
 20
58.186157
 30
0.0
 40
4.5
 41
0.0
 71
     7
 72
     1
  1
{\fArial|b0|i0|c12|p0;>28*}
 11
0.0
 21
1.0
 31
0.0
 73
     1
 44
1.333333
  0
ENDBLK
  5
8F
100
AcDbEntity
  8
0
390
0
100
AcDbBlockEnd
  0
BLOCK
  5
A1
100
AcDbEntity
  8
0
390
0
100
AcDbBlockBegin
  2
1-115_TV_U_77
 70
     0
 10
0.0
 20
0.0
 30
0.0
  3
1-115_TV_U_77
  1

  0
LWPOLYLINE
  5
A2
100
AcDbEntity
  8
LAYER01
370
    13
390
0
  6
Continuous
 62
   213
100
AcDbPolyline
 90
        2
 70
     0
 10
3.000061
 20
57.267822
 42
-0.267949
 10
3.999939
 20
55.535889
  0
LWPOLYLINE
  5
A3
100
AcDbEntity
  8
LAYER01
370
    13
390
0
  6
Continuous
 62
   213
100
AcDbPolyline
 90
        2
 70
     0
 10
3.000061
 20
57.268066
 42
-0.267949
 10
2.000183
 20
59.0
  0
LWPOLYLINE
  5
A4
100
AcDbEntity
  8
LAYER01
370
    35
390
0
  6
Continuous
 62
   134
100
AcDbPolyline
 90
        2
 70
     0
 10
2.000061
 20
59.0
 10
2.000061
 20
64.0
  0
LWPOLYLINE
  5
A5
100
AcDbEntity
  8
LAYER01
370
    13
390
0
  6
Continuous
 62
   213
100
AcDbPolyline
 90
        2
 70
     0
 10
0.000061
 20
64.0
 42
-1.0
 10
2.000061
 20
64.0
  0
LWPOLYLINE
  5
A6
100
AcDbEntity
  8
LAYER01
370
    35
390
0
  6
Continuous
 62
   134
100
AcDbPolyline
 90
        2
 70
     0
 10
0.000061
 20
64.0
 10
0.000061
 20
0.0
  0
LWPOLYLINE
  5
A7
100
AcDbEntity
  8
LAYER01
370
    35
390
0
  6
Continuous
 62
   134
100
AcDbPolyline
 90
        2
 70
     0
 10
0.000061
 20
0.0
 10
1.500061
 20
0.0
  0
LWPOLYLINE
  5
A8
100
AcDbEntity
  8
LAYER01
370
    35
390
0
  6
Continuous
 62
   134
100
AcDbPolyline
 90
        2
 70
     0
 10
1.500061
 20
0.0
 10
1.500061
 20
0.5
  0
LWPOLYLINE
  5
A9
100
AcDbEntity
  8
LAYER01
370
    13
390
0
  6
Continuous
 62
   213
100
AcDbPolyline
 90
        2
 70
     0
 10
1.500061
 20
0.5
 42
-0.414214
 10
3.500061
 20
2.5
  0
LWPOLYLINE
  5
AA
100
AcDbEntity
  8
LAYER01
370
    35
390
0
  6
Continuous
 62
   134
100
AcDbPolyline
 90
        2
 70
     0
 10
3.500061
 20
2.5
 10
113.750061
 20
2.5
  0
LWPOLYLINE
  5
AB
100
AcDbEntity
  8
LAYER01
370
    13
390
0
  6
Continuous
 62
   213
100
AcDbPolyline
 90
        2
 70
     0
 10
113.750061
 20
5.0
 42
-1.0
 10
113.750061
 20
2.5
  0
LWPOLYLINE
  5
AC
100
AcDbEntity
  8
LAYER01
370
    35
390
0
  6
Continuous
 62
   134
100
AcDbPolyline
 90
        2
 70
     0
 10
113.750061
 20
5.0
 10
95.000061
 20
5.0
  0
LWPOLYLINE
  5
AD
100
AcDbEntity
  8
LAYER01
370
    35
390
0
  6
Continuous
 62
   134
100
AcDbPolyline
 90
        2
 70
     0
 10
95.000061
 20
5.0
 10
60.000061
 20
6.5
  0
LWPOLYLINE
  5
AE
100
AcDbEntity
  8
LAYER01
370
    35
390
0
  6
Continuous
 62
   134
100
AcDbPolyline
 90
        2
 70
     0
 10
60.000061
 20
6.5
 10
4.500061
 20
6.5
  0
LWPOLYLINE
  5
AF
100
AcDbEntity
  8
LAYER01
370
    13
390
0
  6
Continuous
 62
   213
100
AcDbPolyline
 90
        2
 70
     0
 10
4.500061
 20
6.5
 42
-0.414214
 10
4.000061
 20
7.0
  0
LWPOLYLINE
  5
B0
100
AcDbEntity
  8
LAYER01
370
    35
390
0
  6
Continuous
 62
   134
100
AcDbPolyline
 90
        2
 70
     0
 10
4.000061
 20
7.0
 10
4.000061
 20
21.653809
  0
LWPOLYLINE
  5
B1
100
AcDbEntity
  8
LAYER01
370
    13
390
0
  6
Continuous
 62
   213
100
AcDbPolyline
 90
        2
 70
     0
 10
4.000061
 20
21.653564
 42
-0.866025
 10
4.000061
 20
22.346436
  0
LWPOLYLINE
  5
B2
100
AcDbEntity
  8
LAYER01
370
    35
390
0
  6
Continuous
 62
   134
100
AcDbPolyline
 90
        2
 70
     0
 10
4.000061
 20
22.346436
 10
4.000061
 20
55.535889
  0
LWPOLYLINE
  5
B3
100
AcDbEntity
  8
LAYER01
370
    18
390
0
  6
DASHED
 62
     7
100
AcDbPolyline
 90
        2
 70
     0
 10
56.291931
 20
2.5
 42
-0.048984
 10
56.070984
 20
3.25
  0
LWPOLYLINE
  5
B4
100
AcDbEntity
  8
LAYER01
370
    18
390
0
  6
DASHED
 62
     7
100
AcDbPolyline
 90
        2
 70
     0
 10
52.141907
 20
6.5
 42
-0.359988
 10
56.070984
 20
3.25
  0
LWPOLYLINE
  5
B5
100
AcDbEntity
  8
LAYER01
370
    35
390
0
  6
Continuous
 62
   134
100
AcDbPolyline
 90
       10
 70
     0
 10
51.354187
 20
2.5
 42
-0.333961
 10
52.31488
 20
1.777832
 42
0.178753
 10
54.980164
 20
-2.631348
 42
0.173713
 10
60.394836
 20
-4.01709
 10
103.548889
 20
-1.525391
 10
112.254944
 20
-2.400391
 42
1.00001
 10
112.504944
 20
0.086914
 10
103.715515
 20
0.970459
 10
61.531311
 20
-0.930664
 42
-0.376605
 10
56.292053
 20
2.5
  0
LWPOLYLINE
  5
B6
100
AcDbEntity
  8
LAYER01
370
    25
390
0
  6
DASHDOT
 62
    92
100
AcDbPolyline
 90
        2
 70
     0
 10
105.000061
 20
1.5
 10
105.000061
 20
6.0
  0
LWPOLYLINE
  5
B7
100
AcDbEntity
  8
LAYER01
370
    18
390
0
  6
DASHED
 62
     7
100
AcDbPolyline
 90
        2
 70
     0
 10
102.500061
 20
2.5
 10
102.500061
 20
5.0
  0
LWPOLYLINE
  5
B8
100
AcDbEntity
  8
LAYER01
370
    18
390
0
  6
DASHED
 62
     7
100
AcDbPolyline
 90
        2
 70
     0
 10
107.500061
 20
2.5
 10
107.500061
 20
5.0
  0
LWPOLYLINE
  5
B9
100
AcDbEntity
  8
LAYER01
370
    25
390
0
  6
DASHDOT
 62
    92
100
AcDbPolyline
 90
        2
 70
     0
 10
-1.999939
 20
22.0
 10
7.878967
 20
22.0
  0
LWPOLYLINE
  5
BA
100
AcDbEntity
  8
LAYER01
370
    18
390
0
  6
DASHED
 62
     7
100
AcDbPolyline
 90
        2
 70
     0
 10
0.000061
 20
33.0
 10
4.000061
 20
33.0
  0
LWPOLYLINE
  5
BB
100
AcDbEntity
  8
LAYER01
370
    18
390
0
  6
DASHED
 62
     7
100
AcDbPolyline
 90
        2
 70
     0
 10
0.000061
 20
11.0
 10
4.000061
 20
11.0
  0
ENDBLK
  5
BC
100
AcDbEntity
  8
0
390
0
100
AcDbBlockEnd
  0
BLOCK
  5
C0
100
AcDbEntity
  8
0
390
0
100
AcDbBlockBegin
  2
04006016_U_77
 70
     0
 10
0.0
 20
0.0
 30
0.0
  3
04006016_U_77
  1

  0
LWPOLYLINE
  5
C1
100
AcDbEntity
  8
LAYER01
370
    35
390
0
  6
Continuous
 62
   134
100
AcDbPolyline
 90
        2
 70
     0
 10
2.099854
 20
1.599915
 10
30.0
 20
1.599915
  0
LWPOLYLINE
  5
C2
100
AcDbEntity
  8
LAYER01
370
    35
390
0
  6
Continuous
 62
   134
100
AcDbPolyline
 90
        2
 70
     0
 10
30.0
 20
1.599915
 10
39.495117
 20
0.999817
  0
LWPOLYLINE
  5
C3
100
AcDbEntity
  8
LAYER01
370
    35
390
0
  6
Continuous
 62
   134
100
AcDbPolyline
 90
        2
 70
     0
 10
39.5
 20
-0.000061
 10
0.800049
 20
-0.000061
  0
LWPOLYLINE
  5
C4
100
AcDbEntity
  8
LAYER01
370
    13
390
0
  6
Continuous
 62
   213
100
AcDbPolyline
 90
        2
 70
     0
 10
0.0
 20
0.999939
 42
0.457422
 10
0.799805
 20
-0.000061
  0
LWPOLYLINE
  5
C5
100
AcDbEntity
  8
LAYER01
370
    35
390
0
  6
Continuous
 62
   134
100
AcDbPolyline
 90
        2
 70
     0
 10
0.0
 20
0.999939
 10
0.0
 20
9.754944
  0
LWPOLYLINE
  5
C6
100
AcDbEntity
  8
LAYER01
370
    13
390
0
  6
Continuous
 62
   213
100
AcDbPolyline
 90
        2
 70
     0
 10
-0.000244
 20
10.244934
 42
0.816497
 10
-0.000244
 20
9.754944
  0
LWPOLYLINE
  5
C7
100
AcDbEntity
  8
LAYER01
370
    35
390
0
  6
Continuous
 62
   134
100
AcDbPolyline
 90
        2
 70
     0
 10
0.0
 20
10.244812
 10
0.0
 20
29.754944
  0
LWPOLYLINE
  5
C8
100
AcDbEntity
  8
LAYER01
370
    13
390
0
  6
Continuous
 62
   213
100
AcDbPolyline
 90
        2
 70
     0
 10
-0.000244
 20
30.244934
 42
0.816497
 10
-0.000244
 20
29.754944
  0
LWPOLYLINE
  5
C9
100
AcDbEntity
  8
LAYER01
370
    35
390
0
  6
Continuous
 62
   134
100
AcDbPolyline
 90
        2
 70
     0
 10
0.0
 20
30.244812
 10
0.0
 20
49.754944
  0
LWPOLYLINE
  5
CA
100
AcDbEntity
  8
LAYER01
370
    13
390
0
  6
Continuous
 62
   213
100
AcDbPolyline
 90
        2
 70
     0
 10
-0.000244
 20
50.244934
 42
0.816497
 10
-0.000244
 20
49.754944
  0
LWPOLYLINE
  5
CB
100
AcDbEntity
  8
LAYER01
370
    35
390
0
  6
Continuous
 62
   134
100
AcDbPolyline
 90
        2
 70
     0
 10
0.0
 20
50.244812
 10
0.0
 20
58.999939
  0
LWPOLYLINE
  5
CC
100
AcDbEntity
  8
LAYER01
370
    13
390
0
  6
Continuous
 62
   213
100
AcDbPolyline
 90
        2
 70
     0
 10
1.599854
 20
58.999817
 42
1.25
 10
-0.000244
 20
58.999817
  0
LWPOLYLINE
  5
CD
100
AcDbEntity
  8
LAYER01
370
    35
390
0
  6
Continuous
 62
   134
100
AcDbPolyline
 90
        2
 70
     0
 10
1.599854
 20
58.999939
 10
1.599854
 20
55.346252
  0
LWPOLYLINE
  5
CE
100
AcDbEntity
  8
LAYER01
370
    35
390
0
  6
Continuous
 62
   134
100
AcDbPolyline
 90
        2
 70
     0
 10
1.599854
 20
54.653503
 10
1.599854
 20
50.244812
  0
LWPOLYLINE
  5
CF
100
AcDbEntity
  8
LAYER01
370
    13
390
0
  6
Continuous
 62
   213
100
AcDbPolyline
 90
        2
 70
     0
 10
1.599854
 20
50.244934
 42
0.816497
 10
1.599854
 20
49.754944
  0
LWPOLYLINE
  5
D0
100
AcDbEntity
  8
LAYER01
370
    35
390
0
  6
Continuous
 62
   134
100
AcDbPolyline
 90
        2
 70
     0
 10
1.599854
 20
49.754944
 10
1.599854
 20
30.244812
  0
LWPOLYLINE
  5
D1
100
AcDbEntity
  8
LAYER01
370
    13
390
0
  6
Continuous
 62
   213
100
AcDbPolyline
 90
        2
 70
     0
 10
1.599854
 20
30.244934
 42
0.816497
 10
1.599854
 20
29.754944
  0
LWPOLYLINE
  5
D2
100
AcDbEntity
  8
LAYER01
370
    35
390
0
  6
Continuous
 62
   134
100
AcDbPolyline
 90
        2
 70
     0
 10
1.599854
 20
29.754944
 10
1.599854
 20
10.244812
  0
LWPOLYLINE
  5
D3
100
AcDbEntity
  8
LAYER01
370
    13
390
0
  6
Continuous
 62
   213
100
AcDbPolyline
 90
        2
 70
     0
 10
1.599854
 20
10.244934
 42
0.816497
 10
1.599854
 20
9.754944
  0
LWPOLYLINE
  5
D4
100
AcDbEntity
  8
LAYER01
370
    35
390
0
  6
Continuous
 62
   134
100
AcDbPolyline
 90
        2
 70
     0
 10
1.599854
 20
9.754944
 10
1.599854
 20
2.099915
  0
LWPOLYLINE
  5
D5
100
AcDbEntity
  8
LAYER01
370
    13
390
0
  6
Continuous
 62
   213
100
AcDbPolyline
 90
        2
 70
     0
 10
1.599854
 20
2.099915
 42
0.414214
 10
2.099854
 20
1.599915
  0
LWPOLYLINE
  5
D6
100
AcDbEntity
  8
LAYER01
370
    13
390
0
  6
Continuous
 62
   213
100
AcDbPolyline
 90
        2
 70
     0
 10
1.599854
 20
55.346375
 42
0.866025
 10
1.599854
 20
54.653503
  0
LWPOLYLINE
  5
D7
100
AcDbEntity
  8
LAYER01
370
    13
390
0
  6
Continuous
 62
   213
100
AcDbPolyline
 90
        2
 70
     0
 10
39.5
 20
-0.000061
 42
1.004744
 10
39.495117
 20
0.999939
  0
ENDBLK
  5
D8
100
AcDbEntity
  8
0
390
0
100
AcDbBlockEnd
  0
BLOCK
  5
DE
100
AcDbEntity
  8
0
390
0
100
AcDbBlockBegin
  2
HATCH-DZ_U_77
 70
     0
 10
0.0
 20
0.0
 30
0.0
  3
HATCH-DZ_U_77
  1

  0
LWPOLYLINE
  5
DF
100
AcDbEntity
  8
LAYER01
370
    13
390
0
  6
Continuous
 62
   213
100
AcDbPolyline
 90
        2
 70
     0
 10
2204.207031
 20
257.848511
 10
2205.807129
 20
259.448486
  0
LWPOLYLINE
  5
E0
100
AcDbEntity
  8
LAYER01
370
    13
390
0
  6
Continuous
 62
   213
100
AcDbPolyline
 90
        2
 70
     0
 10
2206.901367
 20
257.848511
 10
2208.500977
 20
259.448486
  0
LWPOLYLINE
  5
E1
100
AcDbEntity
  8
LAYER01
370
    13
390
0
  6
Continuous
 62
   213
100
AcDbPolyline
 90
        2
 70
     0
 10
2209.595215
 20
257.848511
 10
2211.195313
 20
259.448486
  0
LWPOLYLINE
  5
E2
100
AcDbEntity
  8
LAYER01
370
    13
390
0
  6
Continuous
 62
   213
100
AcDbPolyline
 90
        2
 70
     0
 10
2212.289063
 20
257.848511
 10
2213.60791
 20
259.167358
  0
LWPOLYLINE
  5
E3
100
AcDbEntity
  8
LAYER01
370
    13
390
0
  6
Continuous
 62
   213
100
AcDbPolyline
 90
        2
 70
     0
 10
2217.689453
 20
257.860474
 10
2219.277344
 20
259.448486
  0
LWPOLYLINE
  5
E4
100
AcDbEntity
  8
LAYER01
370
    13
390
0
  6
Continuous
 62
   213
100
AcDbPolyline
 90
        2
 70
     0
 10
2220.371582
 20
257.848511
 10
2221.97168
 20
259.448486
  0
LWPOLYLINE
  5
E5
100
AcDbEntity
  8
LAYER01
370
    13
390
0
  6
Continuous
 62
   213
100
AcDbPolyline
 90
        2
 70
     0
 10
2223.06543
 20
257.848511
 10
2224.665527
 20
259.448486
  0
LWPOLYLINE
  5
E6
100
AcDbEntity
  8
LAYER01
370
    13
390
0
  6
Continuous
 62
   213
100
AcDbPolyline
 90
        2
 70
     0
 10
2225.759766
 20
257.848511
 10
2227.359863
 20
259.448486
  0
LWPOLYLINE
  5
E7
100
AcDbEntity
  8
LAYER01
370
    13
390
0
  6
Continuous
 62
   213
100
AcDbPolyline
 90
        2
 70
     0
 10
2228.453613
 20
257.848511
 10
2230.053711
 20
259.448486
  0
LWPOLYLINE
  5
E8
100
AcDbEntity
  8
LAYER01
370
    13
390
0
  6
Continuous
 62
   213
100
AcDbPolyline
 90
        2
 70
     0
 10
2231.147949
 20
257.848511
 10
2232.748047
 20
259.448486
  0
LWPOLYLINE
  5
E9
100
AcDbEntity
  8
LAYER01
370
    13
390
0
  6
Continuous
 62
   213
100
AcDbPolyline
 90
        2
 70
     0
 10
2233.841797
 20
257.848511
 10
2235.441895
 20
259.448486
  0
LWPOLYLINE
  5
EA
100
AcDbEntity
  8
LAYER01
370
    13
390
0
  6
Continuous
 62
   213
100
AcDbPolyline
 90
        2
 70
     0
 10
2236.536133
 20
257.848511
 10
2238.135742
 20
259.448486
  0
LWPOLYLINE
  5
EB
100
AcDbEntity
  8
LAYER01
370
    13
390
0
  6
Continuous
 62
   213
100
AcDbPolyline
 90
        2
 70
     0
 10
2239.22998
 20
257.848511
 10
2240.830078
 20
259.448486
  0
LWPOLYLINE
  5
EC
100
AcDbEntity
  8
LAYER01
370
    13
390
0
  6
Continuous
 62
   213
100
AcDbPolyline
 90
        2
 70
     0
 10
2241.924316
 20
257.848511
 10
2243.523926
 20
259.448486
  0
LWPOLYLINE
  5
ED
100
AcDbEntity
  8
LAYER01
370
    13
390
0
  6
Continuous
 62
   213
100
AcDbPolyline
 90
        2
 70
     0
 10
2244.618164
 20
257.848511
 10
2246.218262
 20
259.448486
  0
LWPOLYLINE
  5
EE
100
AcDbEntity
  8
LAYER01
370
    13
390
0
  6
Continuous
 62
   213
100
AcDbPolyline
 90
        2
 70
     0
 10
2247.3125
 20
257.848511
 10
2248.912109
 20
259.448486
  0
LWPOLYLINE
  5
EF
100
AcDbEntity
  8
LAYER01
370
    13
390
0
  6
Continuous
 62
   213
100
AcDbPolyline
 90
        2
 70
     0
 10
2250.006348
 20
257.848511
 10
2251.606445
 20
259.448486
  0
LWPOLYLINE
  5
F0
100
AcDbEntity
  8
LAYER01
370
    13
390
0
  6
Continuous
 62
   213
100
AcDbPolyline
 90
        2
 70
     0
 10
2252.700684
 20
257.848511
 10
2254.300293
 20
259.448486
  0
LWPOLYLINE
  5
F1
100
AcDbEntity
  8
LAYER01
370
    13
390
0
  6
Continuous
 62
   213
100
AcDbPolyline
 90
        2
 70
     0
 10
2201.513184
 20
257.848511
 10
2203.112793
 20
259.448486
  0
LWPOLYLINE
  5
F2
100
AcDbEntity
  8
LAYER01
370
    13
390
0
  6
Continuous
 62
   213
100
AcDbPolyline
 90
        2
 70
     0
 10
2198.818848
 20
257.848511
 10
2200.418945
 20
259.448486
  0
LWPOLYLINE
  5
F3
100
AcDbEntity
  8
LAYER01
370
    13
390
0
  6
Continuous
 62
   213
100
AcDbPolyline
 90
        2
 70
     0
 10
2196.125
 20
257.848511
 10
2197.724609
 20
259.448486
  0
LWPOLYLINE
  5
F4
100
AcDbEntity
  8
LAYER01
370
    13
390
0
  6
Continuous
 62
   213
100
AcDbPolyline
 90
        2
 70
     0
 10
2195.10791
 20
259.525879
 10
2196.708008
 20
261.125854
  0
LWPOLYLINE
  5
F5
100
AcDbEntity
  8
LAYER01
370
    13
390
0
  6
Continuous
 62
   213
100
AcDbPolyline
 90
        2
 70
     0
 10
2195.10791
 20
262.219971
 10
2196.708008
 20
263.819946
  0
LWPOLYLINE
  5
F6
100
AcDbEntity
  8
LAYER01
370
    13
390
0
  6
Continuous
 62
   213
100
AcDbPolyline
 90
        2
 70
     0
 10
2195.10791
 20
264.914063
 10
2196.708008
 20
266.514038
  0
LWPOLYLINE
  5
F7
100
AcDbEntity
  8
LAYER01
370
    13
390
0
  6
Continuous
 62
   213
100
AcDbPolyline
 90
        2
 70
     0
 10
2195.10791
 20
267.608154
 10
2196.708008
 20
269.20813
  0
LWPOLYLINE
  5
F8
100
AcDbEntity
  8
LAYER01
370
    13
390
0
  6
Continuous
 62
   213
100
AcDbPolyline
 90
        2
 70
     0
 10
2195.10791
 20
270.302124
 10
2196.708008
 20
271.902222
  0
LWPOLYLINE
  5
F9
100
AcDbEntity
  8
LAYER01
370
    13
390
0
  6
Continuous
 62
   213
100
AcDbPolyline
 90
        2
 70
     0
 10
2195.10791
 20
272.996216
 10
2196.708008
 20
274.596313
  0
LWPOLYLINE
  5
FA
100
AcDbEntity
  8
LAYER01
370
    13
390
0
  6
Continuous
 62
   213
100
AcDbPolyline
 90
        2
 70
     0
 10
2195.10791
 20
275.690308
 10
2196.708008
 20
277.290283
  0
LWPOLYLINE
  5
FB
100
AcDbEntity
  8
LAYER01
370
    13
390
0
  6
Continuous
 62
   213
100
AcDbPolyline
 90
        2
 70
     0
 10
2195.10791
 20
278.384399
 10
2196.708008
 20
279.984375
  0
LWPOLYLINE
  5
FC
100
AcDbEntity
  8
LAYER01
370
    13
390
0
  6
Continuous
 62
   213
100
AcDbPolyline
 90
        2
 70
     0
 10
2195.10791
 20
281.078491
 10
2196.708008
 20
282.678467
  0
LWPOLYLINE
  5
FD
100
AcDbEntity
  8
LAYER01
370
    13
390
0
  6
Continuous
 62
   213
100
AcDbPolyline
 90
        2
 70
     0
 10
2195.10791
 20
283.772583
 10
2196.708008
 20
285.372559
  0
LWPOLYLINE
  5
FE
100
AcDbEntity
  8
LAYER01
370
    13
390
0
  6
Continuous
 62
   213
100
AcDbPolyline
 90
        2
 70
     0
 10
2195.10791
 20
286.466675
 10
2196.695313
 20
288.053711
  0
LWPOLYLINE
  5
FF
100
AcDbEntity
  8
LAYER01
370
    13
390
0
  6
Continuous
 62
   213
100
AcDbPolyline
 90
        2
 70
     0
 10
2195.10791
 20
289.160767
 10
2196.535156
 20
290.587646
  0
LWPOLYLINE
  5
100
100
AcDbEntity
  8
LAYER01
370
    13
390
0
  6
Continuous
 62
   213
100
AcDbPolyline
 90
        2
 70
     0
 10
2195.10791
 20
291.854736
 10
2196.375
 20
293.121582
  0
LWPOLYLINE
  5
101
100
AcDbEntity
  8
LAYER01
370
    13
390
0
  6
Continuous
 62
   213
100
AcDbPolyline
 90
        2
 70
     0
 10
2195.10791
 20
294.548828
 10
2196.214844
 20
295.655518
  0
LWPOLYLINE
  5
102
100
AcDbEntity
  8
LAYER01
370
    13
390
0
  6
Continuous
 62
   213
100
AcDbPolyline
 90
        2
 70
     0
 10
2195.10791
 20
297.24292
 10
2195.704102
 20
297.838989
  0
ENDBLK
  5
103
100
AcDbEntity
  8
0
390
0
100
AcDbBlockEnd
  0
BLOCK
  5
113
100
AcDbEntity
  8
0
390
0
100
AcDbBlockBegin
  2
X80_F_US_U_M_77
 70
     0
 10
0.0
 20
0.0
 30
0.0
  3
X80_F_US_U_M_77
  1

  0
LWPOLYLINE
  5
114
100
AcDbEntity
  8
LAYER01
370
    35
390
0
  6
Continuous
 62
   134
100
AcDbPolyline
 90
        2
 70
     0
 10
0.0
 20
9.250061
 10
3.800049
 20
9.250061
  0
LWPOLYLINE
  5
115
100
AcDbEntity
  8
LAYER01
370
    35
390
0
  6
Continuous
 62
   134
100
AcDbPolyline
 90
        2
 70
     0
 10
2.199951
 20
9.250061
 10
2.199951
 20
-9.249939
  0
LWPOLYLINE
  5
116
100
AcDbEntity
  8
LAYER01
370
    35
390
0
  6
Continuous
 62
   134
100
AcDbPolyline
 90
        2
 70
     0
 10
2.199951
 20
-9.249939
 10
0.0
 20
-9.249939
  0
LWPOLYLINE
  5
117
100
AcDbEntity
  8
LAYER01
370
    35
390
0
  6
Continuous
 62
   134
100
AcDbPolyline
 90
        2
 70
     0
 10
3.800049
 20
9.250061
 10
3.800049
 20
-9.249939
  0
LWPOLYLINE
  5
118
100
AcDbEntity
  8
LAYER01
370
    35
390
0
  6
Continuous
 62
   134
100
AcDbPolyline
 90
        2
 70
     0
 10
3.800049
 20
-9.249939
 10
2.199951
 20
-9.249939
  0
INSERT
  5
125
100
AcDbEntity
  8
LAYER01
390
0
100
AcDbBlockReference
  2
2--C2EV-CI_U_M_77
 10
10.599915
 20
0.0
 30
0.0
 50
180.0
  0
ENDBLK
  5
126
100
AcDbEntity
  8
0
390
0
100
AcDbBlockEnd
  0
BLOCK
  5
11A
100
AcDbEntity
  8
0
390
0
100
AcDbBlockBegin
  2
2--C2EV-CI_U_M_77
 70
     0
 10
0.0
 20
0.0
 30
0.0
  3
2--C2EV-CI_U_M_77
  1

  0
LWPOLYLINE
  5
11B
100
AcDbEntity
  8
LAYER21
370
    13
390
0
  6
Continuous
 62
   213
100
AcDbPolyline
 90
        4
 70
     1
 10
6.799866
 20
-7.508972
 10
6.799866
 20
7.50885
 10
0.000061
 20
7.50885
 10
0.000061
 20
-7.508972
  0
LWPOLYLINE
  5
11C
100
AcDbEntity
  8
LAYER21
370
    13
390
0
  6
Continuous
 62
   213
100
AcDbPolyline
 90
        8
 70
     1
 10
5.987366
 20
-3.754456
 10
6.190979
 20
-3.218811
 42
0.18335
 10
6.190979
 20
3.218811
 10
5.987366
 20
3.754456
 10
0.812561
 20
3.754456
 10
0.609924
 20
3.220886
 42
0.183462
 10
0.611389
 20
-3.220398
 10
0.812561
 20
-3.749573
  0
LWPOLYLINE
  5
11D
100
AcDbEntity
  8
LAYER21
370
    13
390
0
  6
Continuous
 62
   213
100
AcDbPolyline
 90
        8
 70
     1
 10
5.987366
 20
3.749573
 10
6.337952
 20
4.384094
 42
0.258495
 10
6.33551
 20
6.877747
 10
5.987366
 20
7.503967
 10
0.812561
 20
7.503967
 10
0.464417
 20
6.877747
 42
0.258495
 10
0.461975
 20
4.384094
 10
0.812561
 20
3.749573
  0
LWPOLYLINE
  5
11E
100
AcDbEntity
  8
LAYER21
370
    13
390
0
  6
Continuous
 62
   213
100
AcDbPolyline
 90
        8
 70
     1
 10
5.987366
 20
-7.513855
 10
6.337952
 20
-6.879333
 42
0.258495
 10
6.33551
 20
-4.385681
 10
5.987366
 20
-3.759338
 10
0.812561
 20
-3.759338
 10
0.464417
 20
-4.385681
 42
0.258495
 10
0.461975
 20
-6.879333
 10
0.812561
 20
-7.513855
  0
LWPOLYLINE
  5
11F
100
AcDbEntity
  8
LAYER21
370
    13
390
0
  6
Continuous
 62
   213
100
AcDbPolyline
 90
        2
 70
     0
 10
5.987366
 20
-3.754456
 10
0.812561
 20
-3.754456
  0
LWPOLYLINE
  5
120
100
AcDbEntity
  8
LAYER21
370
    13
390
0
  6
Continuous
 62
   213
100
AcDbPolyline
 90
        2
 70
     0
 10
5.987366
 20
3.754456
 10
0.812561
 20
3.754456
  0
LWPOLYLINE
  5
121
100
AcDbEntity
  8
LAYER21
370
    13
390
0
  6
Continuous
 62
   213
100
AcDbPolyline
 90
        2
 70
     0
 10
-0.612244
 20
-0.000061
 10
7.41217
 20
-0.000061
  0
LWPOLYLINE
  5
122
100
AcDbEntity
  8
LAYER21
370
    13
390
0
  6
Continuous
 62
   213
100
AcDbPolyline
 90
        5
 70
     1
 10
6.799866
 20
-4.002502
 10
86.124329
 20
-4.002502
 10
96.80011
 20
-0.000061
 10
86.124329
 20
4.00238
 10
6.799866
 20
4.00238
  0
LWPOLYLINE
  5
123
100
AcDbEntity
  8
LAYER21
370
    13
390
0
  6
Continuous
 62
   213
100
AcDbPolyline
 90
        2
 70
     0
 10
-6.577087
 20
-0.000061
 10
110.911438
 20
-0.000061
  0
ENDBLK
  5
124
100
AcDbEntity
  8
0
390
0
100
AcDbBlockEnd
  0
BLOCK
  5
132
100
AcDbEntity
  8
0
390
0
100
AcDbBlockBegin
  2
1-115_TV_U_M_77
 70
     0
 10
0.0
 20
0.0
 30
0.0
  3
1-115_TV_U_M_77
  1

  0
LWPOLYLINE
  5
133
100
AcDbEntity
  8
LAYER01
370
    13
390
0
  6
Continuous
 62
   213
100
AcDbPolyline
 90
        2
 70
     0
 10
3.0
 20
-57.267761
 42
0.267949
 10
4.0
 20
-55.535828
  0
LWPOLYLINE
  5
134
100
AcDbEntity
  8
LAYER01
370
    13
390
0
  6
Continuous
 62
   213
100
AcDbPolyline
 90
        2
 70
     0
 10
3.0
 20
-57.268005
 42
0.267949
 10
2.0
 20
-58.999939
  0
LWPOLYLINE
  5
135
100
AcDbEntity
  8
LAYER01
370
    35
390
0
  6
Continuous
 62
   134
100
AcDbPolyline
 90
        2
 70
     0
 10
2.0
 20
-58.999939
 10
2.0
 20
-63.999939
  0
LWPOLYLINE
  5
136
100
AcDbEntity
  8
LAYER01
370
    13
390
0
  6
Continuous
 62
   213
100
AcDbPolyline
 90
        2
 70
     0
 10
0.0
 20
-63.999939
 42
1.0
 10
2.0
 20
-63.999939
  0
LWPOLYLINE
  5
137
100
AcDbEntity
  8
LAYER01
370
    35
390
0
  6
Continuous
 62
   134
100
AcDbPolyline
 90
        2
 70
     0
 10
0.0
 20
-63.999939
 10
0.0
 20
0.000061
  0
LWPOLYLINE
  5
138
100
AcDbEntity
  8
LAYER01
370
    35
390
0
  6
Continuous
 62
   134
100
AcDbPolyline
 90
        2
 70
     0
 10
0.0
 20
0.000061
 10
1.5
 20
0.000061
  0
LWPOLYLINE
  5
139
100
AcDbEntity
  8
LAYER01
370
    35
390
0
  6
Continuous
 62
   134
100
AcDbPolyline
 90
        2
 70
     0
 10
1.5
 20
0.000061
 10
1.5
 20
-0.499939
  0
LWPOLYLINE
  5
13A
100
AcDbEntity
  8
LAYER01
370
    13
390
0
  6
Continuous
 62
   213
100
AcDbPolyline
 90
        2
 70
     0
 10
1.5
 20
-0.499939
 42
0.414214
 10
3.5
 20
-2.499939
  0
LWPOLYLINE
  5
13B
100
AcDbEntity
  8
LAYER01
370
    35
390
0
  6
Continuous
 62
   134
100
AcDbPolyline
 90
        2
 70
     0
 10
3.5
 20
-2.499939
 10
113.749756
 20
-2.499939
  0
LWPOLYLINE
  5
13C
100
AcDbEntity
  8
LAYER01
370
    13
390
0
  6
Continuous
 62
   213
100
AcDbPolyline
 90
        2
 70
     0
 10
113.749756
 20
-4.999939
 42
1.0
 10
113.749756
 20
-2.499939
  0
LWPOLYLINE
  5
13D
100
AcDbEntity
  8
LAYER01
370
    35
390
0
  6
Continuous
 62
   134
100
AcDbPolyline
 90
        2
 70
     0
 10
113.749756
 20
-4.999939
 10
94.999756
 20
-4.999939
  0
LWPOLYLINE
  5
13E
100
AcDbEntity
  8
LAYER01
370
    35
390
0
  6
Continuous
 62
   134
100
AcDbPolyline
 90
        2
 70
     0
 10
94.999756
 20
-4.999939
 10
59.999756
 20
-6.499939
  0
LWPOLYLINE
  5
13F
100
AcDbEntity
  8
LAYER01
370
    35
390
0
  6
Continuous
 62
   134
100
AcDbPolyline
 90
        2
 70
     0
 10
59.999756
 20
-6.499939
 10
4.5
 20
-6.499939
  0
LWPOLYLINE
  5
140
100
AcDbEntity
  8
LAYER01
370
    13
390
0
  6
Continuous
 62
   213
100
AcDbPolyline
 90
        2
 70
     0
 10
4.5
 20
-6.499939
 42
0.414214
 10
4.0
 20
-6.999939
  0
LWPOLYLINE
  5
141
100
AcDbEntity
  8
LAYER01
370
    35
390
0
  6
Continuous
 62
   134
100
AcDbPolyline
 90
        2
 70
     0
 10
4.0
 20
-6.999939
 10
4.0
 20
-21.653748
  0
LWPOLYLINE
  5
142
100
AcDbEntity
  8
LAYER01
370
    13
390
0
  6
Continuous
 62
   213
100
AcDbPolyline
 90
        2
 70
     0
 10
4.0
 20
-21.653503
 42
0.866025
 10
4.0
 20
-22.346375
  0
LWPOLYLINE
  5
143
100
AcDbEntity
  8
LAYER01
370
    35
390
0
  6
Continuous
 62
   134
100
AcDbPolyline
 90
        2
 70
     0
 10
4.0
 20
-22.346375
 10
4.0
 20
-55.535828
  0
LWPOLYLINE
  5
144
100
AcDbEntity
  8
LAYER01
370
    18
390
0
  6
DASHED
 62
     7
100
AcDbPolyline
 90
        2
 70
     0
 10
56.291748
 20
-2.499939
 42
0.048984
 10
56.071045
 20
-3.249939
  0
LWPOLYLINE
  5
145
100
AcDbEntity
  8
LAYER01
370
    18
390
0
  6
DASHED
 62
     7
100
AcDbPolyline
 90
        2
 70
     0
 10
52.141846
 20
-6.499939
 42
0.359988
 10
56.071045
 20
-3.249939
  0
LWPOLYLINE
  5
146
100
AcDbEntity
  8
LAYER01
370
    35
390
0
  6
Continuous
 62
   134
100
AcDbPolyline
 90
       10
 70
     0
 10
51.354248
 20
-2.499939
 42
0.333961
 10
52.314697
 20
-1.777771
 42
-0.178753
 10
54.980225
 20
2.631531
 42
-0.173713
 10
60.394775
 20
4.017151
 10
103.549072
 20
1.525452
 10
112.255127
 20
2.400452
 42
-1.00001
 10
112.505127
 20
-0.086853
 10
103.715576
 20
-0.970398
 10
61.531494
 20
0.930725
 42
0.376605
 10
56.292236
 20
-2.500061
  0
LWPOLYLINE
  5
147
100
AcDbEntity
  8
LAYER01
370
    25
390
0
  6
DASHDOT
 62
    92
100
AcDbPolyline
 90
        2
 70
     0
 10
104.999756
 20
-1.499939
 10
104.999756
 20
-5.999939
  0
LWPOLYLINE
  5
148
100
AcDbEntity
  8
LAYER01
370
    18
390
0
  6
DASHED
 62
     7
100
AcDbPolyline
 90
        2
 70
     0
 10
102.499756
 20
-2.499939
 10
102.499756
 20
-4.999939
  0
LWPOLYLINE
  5
149
100
AcDbEntity
  8
LAYER01
370
    18
390
0
  6
DASHED
 62
     7
100
AcDbPolyline
 90
        2
 70
     0
 10
107.499756
 20
-2.499939
 10
107.499756
 20
-4.999939
  0
LWPOLYLINE
  5
14A
100
AcDbEntity
  8
LAYER01
370
    25
390
0
  6
DASHDOT
 62
    92
100
AcDbPolyline
 90
        2
 70
     0
 10
-2.0
 20
-21.999939
 10
7.87915
 20
-21.999939
  0
LWPOLYLINE
  5
14B
100
AcDbEntity
  8
LAYER01
370
    18
390
0
  6
DASHED
 62
     7
100
AcDbPolyline
 90
        2
 70
     0
 10
0.0
 20
-32.999939
 10
4.0
 20
-32.999939
  0
LWPOLYLINE
  5
14C
100
AcDbEntity
  8
LAYER01
370
    18
390
0
  6
DASHED
 62
     7
100
AcDbPolyline
 90
        2
 70
     0
 10
0.0
 20
-10.999939
 10
4.0
 20
-10.999939
  0
ENDBLK
  5
14D
100
AcDbEntity
  8
0
390
0
100
AcDbBlockEnd
  0
BLOCK
  5
151
100
AcDbEntity
  8
0
390
0
100
AcDbBlockBegin
  2
04006016_U_M_77
 70
     0
 10
0.0
 20
0.0
 30
0.0
  3
04006016_U_M_77
  1

  0
LWPOLYLINE
  5
152
100
AcDbEntity
  8
LAYER01
370
    35
390
0
  6
Continuous
 62
   134
100
AcDbPolyline
 90
        2
 70
     0
 10
2.099976
 20
-1.600098
 10
30.0
 20
-1.600098
  0
LWPOLYLINE
  5
153
100
AcDbEntity
  8
LAYER01
370
    35
390
0
  6
Continuous
 62
   134
100
AcDbPolyline
 90
        2
 70
     0
 10
30.0
 20
-1.600098
 10
39.495117
 20
-1.0
  0
LWPOLYLINE
  5
154
100
AcDbEntity
  8
LAYER01
370
    35
390
0
  6
Continuous
 62
   134
100
AcDbPolyline
 90
        2
 70
     0
 10
39.499878
 20
0.0
 10
0.799927
 20
0.0
  0
LWPOLYLINE
  5
155
100
AcDbEntity
  8
LAYER01
370
    13
390
0
  6
Continuous
 62
   213
100
AcDbPolyline
 90
        2
 70
     0
 10
0.0
 20
-1.0
 42
-0.457422
 10
0.799927
 20
0.0
  0
LWPOLYLINE
  5
156
100
AcDbEntity
  8
LAYER01
370
    35
390
0
  6
Continuous
 62
   134
100
AcDbPolyline
 90
        2
 70
     0
 10
0.0
 20
-1.0
 10
0.0
 20
-9.754883
  0
LWPOLYLINE
  5
157
100
AcDbEntity
  8
LAYER01
370
    13
390
0
  6
Continuous
 62
   213
100
AcDbPolyline
 90
        2
 70
     0
 10
-0.000122
 20
-10.245117
 42
-0.816497
 10
-0.000122
 20
-9.754883
  0
LWPOLYLINE
  5
158
100
AcDbEntity
  8
LAYER01
370
    35
390
0
  6
Continuous
 62
   134
100
AcDbPolyline
 90
        2
 70
     0
 10
0.0
 20
-10.244629
 10
0.0
 20
-29.754883
  0
LWPOLYLINE
  5
159
100
AcDbEntity
  8
LAYER01
370
    13
390
0
  6
Continuous
 62
   213
100
AcDbPolyline
 90
        2
 70
     0
 10
-0.000122
 20
-30.245117
 42
-0.816497
 10
-0.000122
 20
-29.754883
  0
LWPOLYLINE
  5
15A
100
AcDbEntity
  8
LAYER01
370
    35
390
0
  6
Continuous
 62
   134
100
AcDbPolyline
 90
        2
 70
     0
 10
0.0
 20
-30.244629
 10
0.0
 20
-49.754883
  0
LWPOLYLINE
  5
15B
100
AcDbEntity
  8
LAYER01
370
    13
390
0
  6
Continuous
 62
   213
100
AcDbPolyline
 90
        2
 70
     0
 10
-0.000122
 20
-50.245117
 42
-0.816497
 10
-0.000122
 20
-49.754883
  0
LWPOLYLINE
  5
15C
100
AcDbEntity
  8
LAYER01
370
    35
390
0
  6
Continuous
 62
   134
100
AcDbPolyline
 90
        2
 70
     0
 10
0.0
 20
-50.244629
 10
0.0
 20
-59.0
  0
LWPOLYLINE
  5
15D
100
AcDbEntity
  8
LAYER01
370
    13
390
0
  6
Continuous
 62
   213
100
AcDbPolyline
 90
        2
 70
     0
 10
1.599976
 20
-59.0
 42
-1.25
 10
-0.000122
 20
-59.0
  0
LWPOLYLINE
  5
15E
100
AcDbEntity
  8
LAYER01
370
    35
390
0
  6
Continuous
 62
   134
100
AcDbPolyline
 90
        2
 70
     0
 10
1.599976
 20
-59.0
 10
1.599976
 20
-55.346191
  0
LWPOLYLINE
  5
15F
100
AcDbEntity
  8
LAYER01
370
    35
390
0
  6
Continuous
 62
   134
100
AcDbPolyline
 90
        2
 70
     0
 10
1.599976
 20
-54.653809
 10
1.599976
 20
-50.244629
  0
LWPOLYLINE
  5
160
100
AcDbEntity
  8
LAYER01
370
    13
390
0
  6
Continuous
 62
   213
100
AcDbPolyline
 90
        2
 70
     0
 10
1.599854
 20
-50.245117
 42
-0.816497
 10
1.599854
 20
-49.754883
  0
LWPOLYLINE
  5
161
100
AcDbEntity
  8
LAYER01
370
    35
390
0
  6
Continuous
 62
   134
100
AcDbPolyline
 90
        2
 70
     0
 10
1.599976
 20
-49.754883
 10
1.599976
 20
-30.244629
  0
LWPOLYLINE
  5
162
100
AcDbEntity
  8
LAYER01
370
    13
390
0
  6
Continuous
 62
   213
100
AcDbPolyline
 90
        2
 70
     0
 10
1.599854
 20
-30.245117
 42
-0.816497
 10
1.599854
 20
-29.754883
  0
LWPOLYLINE
  5
163
100
AcDbEntity
  8
LAYER01
370
    35
390
0
  6
Continuous
 62
   134
100
AcDbPolyline
 90
        2
 70
     0
 10
1.599976
 20
-29.754883
 10
1.599976
 20
-10.244629
  0
LWPOLYLINE
  5
164
100
AcDbEntity
  8
LAYER01
370
    13
390
0
  6
Continuous
 62
   213
100
AcDbPolyline
 90
        2
 70
     0
 10
1.599854
 20
-10.245117
 42
-0.816497
 10
1.599854
 20
-9.754883
  0
LWPOLYLINE
  5
165
100
AcDbEntity
  8
LAYER01
370
    35
390
0
  6
Continuous
 62
   134
100
AcDbPolyline
 90
        2
 70
     0
 10
1.599976
 20
-9.754883
 10
1.599976
 20
-2.100098
  0
LWPOLYLINE
  5
166
100
AcDbEntity
  8
LAYER01
370
    13
390
0
  6
Continuous
 62
   213
100
AcDbPolyline
 90
        2
 70
     0
 10
1.599976
 20
-2.100098
 42
-0.414214
 10
2.099976
 20
-1.600098
  0
LWPOLYLINE
  5
167
100
AcDbEntity
  8
LAYER01
370
    13
390
0
  6
Continuous
 62
   213
100
AcDbPolyline
 90
        2
 70
     0
 10
1.599854
 20
-55.346191
 42
-0.866025
 10
1.599854
 20
-54.653809
  0
LWPOLYLINE
  5
168
100
AcDbEntity
  8
LAYER01
370
    13
390
0
  6
Continuous
 62
   213
100
AcDbPolyline
 90
        2
 70
     0
 10
39.499878
 20
0.0
 42
-1.004744
 10
39.495117
 20
-1.0
  0
ENDBLK
  5
169
100
AcDbEntity
  8
0
390
0
100
AcDbBlockEnd
  0
BLOCK
  5
17C
100
AcDbEntity
  8
0
390
0
100
AcDbBlockBegin
  2
HATCH-EJ_U_77
 70
     0
 10
0.0
 20
0.0
 30
0.0
  3
HATCH-EJ_U_77
  1

  0
LWPOLYLINE
  5
17D
100
AcDbEntity
  8
LAYER01
370
    13
390
0
  6
Continuous
 62
   213
100
AcDbPolyline
 90
        2
 70
     0
 10
2195.10791
 20
59.405273
 10
2197.10791
 20
61.405273
  0
LWPOLYLINE
  5
17E
100
AcDbEntity
  8
LAYER01
370
    13
390
0
  6
Continuous
 62
   213
100
AcDbPolyline
 90
        2
 70
     0
 10
2195.10791
 20
56.711304
 10
2197.10791
 20
58.711304
  0
LWPOLYLINE
  5
17F
100
AcDbEntity
  8
LAYER01
370
    13
390
0
  6
Continuous
 62
   213
100
AcDbPolyline
 90
        2
 70
     0
 10
2195.10791
 20
54.017212
 10
2197.10791
 20
56.017212
  0
LWPOLYLINE
  5
180
100
AcDbEntity
  8
LAYER01
370
    13
390
0
  6
Continuous
 62
   213
100
AcDbPolyline
 90
        2
 70
     0
 10
2195.10791
 20
51.32312
 10
2197.10791
 20
53.32312
  0
LWPOLYLINE
  5
181
100
AcDbEntity
  8
LAYER01
370
    13
390
0
  6
Continuous
 62
   213
100
AcDbPolyline
 90
        2
 70
     0
 10
2195.427734
 20
48.948486
 10
2197.427734
 20
50.948486
  0
LWPOLYLINE
  5
182
100
AcDbEntity
  8
LAYER01
370
    13
390
0
  6
Continuous
 62
   213
100
AcDbPolyline
 90
        2
 70
     0
 10
2198.121582
 20
48.948486
 10
2200.121582
 20
50.948486
  0
LWPOLYLINE
  5
183
100
AcDbEntity
  8
LAYER01
370
    13
390
0
  6
Continuous
 62
   213
100
AcDbPolyline
 90
        2
 70
     0
 10
2200.815918
 20
48.948486
 10
2202.815918
 20
50.948486
  0
LWPOLYLINE
  5
184
100
AcDbEntity
  8
LAYER01
370
    13
390
0
  6
Continuous
 62
   213
100
AcDbPolyline
 90
        2
 70
     0
 10
2203.509766
 20
48.948486
 10
2205.509766
 20
50.948486
  0
LWPOLYLINE
  5
185
100
AcDbEntity
  8
LAYER01
370
    13
390
0
  6
Continuous
 62
   213
100
AcDbPolyline
 90
        2
 70
     0
 10
2206.204102
 20
48.948486
 10
2208.204102
 20
50.948486
  0
LWPOLYLINE
  5
186
100
AcDbEntity
  8
LAYER01
370
    13
390
0
  6
Continuous
 62
   213
100
AcDbPolyline
 90
        2
 70
     0
 10
2208.897949
 20
48.948486
 10
2210.897949
 20
50.948486
  0
LWPOLYLINE
  5
187
100
AcDbEntity
  8
LAYER01
370
    13
390
0
  6
Continuous
 62
   213
100
AcDbPolyline
 90
        3
 70
     0
 10
2211.592285
 20
48.948486
 10
2212.10791
 20
49.4646
 10
2213.592285
 20
50.948486
  0
LWPOLYLINE
  5
188
100
AcDbEntity
  8
LAYER01
370
    13
390
0
  6
Continuous
 62
   213
100
AcDbPolyline
 90
        2
 70
     0
 10
2214.286133
 20
48.948486
 10
2216.286133
 20
50.948486
  0
LWPOLYLINE
  5
189
100
AcDbEntity
  8
LAYER01
370
    13
390
0
  6
Continuous
 62
   213
100
AcDbPolyline
 90
        2
 70
     0
 10
2216.97998
 20
48.948486
 10
2218.97998
 20
50.948486
  0
LWPOLYLINE
  5
18A
100
AcDbEntity
  8
LAYER01
370
    13
390
0
  6
Continuous
 62
   213
100
AcDbPolyline
 90
        2
 70
     0
 10
2219.674316
 20
48.948486
 10
2221.674316
 20
50.948486
  0
LWPOLYLINE
  5
18B
100
AcDbEntity
  8
LAYER01
370
    13
390
0
  6
Continuous
 62
   213
100
AcDbPolyline
 90
        2
 70
     0
 10
2222.368164
 20
48.948486
 10
2225.10791
 20
51.688232
  0
LWPOLYLINE
  5
18C
100
AcDbEntity
  8
LAYER01
370
    13
390
0
  6
Continuous
 62
   213
100
AcDbPolyline
 90
        2
 70
     0
 10
2225.0625
 20
48.948486
 10
2225.35791
 20
48.994141
  0
LWPOLYLINE
  5
18D
100
AcDbEntity
  8
LAYER01
370
    13
390
0
  6
Continuous
 62
   213
100
AcDbPolyline
 90
        2
 70
     0
 10
2195.10791
 20
62.099365
 10
2197.10791
 20
64.099365
  0
LWPOLYLINE
  5
18E
100
AcDbEntity
  8
LAYER01
370
    13
390
0
  6
Continuous
 62
   213
100
AcDbPolyline
 90
        2
 70
     0
 10
2195.10791
 20
64.793457
 10
2197.10791
 20
66.793457
  0
LWPOLYLINE
  5
18F
100
AcDbEntity
  8
LAYER01
370
    13
390
0
  6
Continuous
 62
   213
100
AcDbPolyline
 90
        2
 70
     0
 10
2195.10791
 20
67.487549
 10
2197.10791
 20
69.487549
  0
LWPOLYLINE
  5
190
100
AcDbEntity
  8
LAYER01
370
    13
390
0
  6
Continuous
 62
   213
100
AcDbPolyline
 90
        2
 70
     0
 10
2195.10791
 20
70.181641
 10
2197.10791
 20
72.181641
  0
LWPOLYLINE
  5
191
100
AcDbEntity
  8
LAYER01
370
    13
390
0
  6
Continuous
 62
   213
100
AcDbPolyline
 90
        2
 70
     0
 10
2195.10791
 20
72.875732
 10
2197.10791
 20
74.875732
  0
LWPOLYLINE
  5
192
100
AcDbEntity
  8
LAYER01
370
    13
390
0
  6
Continuous
 62
   213
100
AcDbPolyline
 90
        2
 70
     0
 10
2195.10791
 20
75.569824
 10
2197.10791
 20
77.569824
  0
LWPOLYLINE
  5
193
100
AcDbEntity
  8
LAYER01
370
    13
390
0
  6
Continuous
 62
   213
100
AcDbPolyline
 90
        2
 70
     0
 10
2195.10791
 20
78.263916
 10
2197.10791
 20
80.263916
  0
LWPOLYLINE
  5
194
100
AcDbEntity
  8
LAYER01
370
    13
390
0
  6
Continuous
 62
   213
100
AcDbPolyline
 90
        2
 70
     0
 10
2195.10791
 20
80.957886
 10
2197.10791
 20
82.957886
  0
LWPOLYLINE
  5
195
100
AcDbEntity
  8
LAYER01
370
    13
390
0
  6
Continuous
 62
   213
100
AcDbPolyline
 90
        3
 70
     0
 10
2195.10791
 20
83.651978
 10
2195.404785
 20
83.948486
 10
2197.10791
 20
85.651978
  0
LWPOLYLINE
  5
196
100
AcDbEntity
  8
LAYER01
370
    13
390
0
  6
Continuous
 62
   213
100
AcDbPolyline
 90
        2
 70
     0
 10
2195.10791
 20
86.346069
 10
2197.10791
 20
88.346069
  0
LWPOLYLINE
  5
197
100
AcDbEntity
  8
LAYER01
370
    13
390
0
  6
Continuous
 62
   213
100
AcDbPolyline
 90
        2
 70
     0
 10
2195.10791
 20
89.040161
 10
2197.10791
 20
91.040161
  0
LWPOLYLINE
  5
198
100
AcDbEntity
  8
LAYER01
370
    13
390
0
  6
Continuous
 62
   213
100
AcDbPolyline
 90
        2
 70
     0
 10
2195.10791
 20
91.734253
 10
2197.10791
 20
93.734253
  0
LWPOLYLINE
  5
199
100
AcDbEntity
  8
LAYER01
370
    13
390
0
  6
Continuous
 62
   213
100
AcDbPolyline
 90
        2
 70
     0
 10
2195.10791
 20
94.428345
 10
2197.10791
 20
96.428345
  0
LWPOLYLINE
  5
19A
100
AcDbEntity
  8
LAYER01
370
    13
390
0
  6
Continuous
 62
   213
100
AcDbPolyline
 90
        2
 70
     0
 10
2195.10791
 20
97.122437
 10
2196.934082
 20
98.948486
  0
LWPOLYLINE
  5
19B
100
AcDbEntity
  8
LAYER01
370
    13
390
0
  6
Continuous
 62
   213
100
AcDbPolyline
 90
        2
 70
     0
 10
2223.10791
 20
57.770508
 10
2225.10791
 20
59.770508
  0
LWPOLYLINE
  5
19C
100
AcDbEntity
  8
LAYER01
370
    13
390
0
  6
Continuous
 62
   213
100
AcDbPolyline
 90
        2
 70
     0
 10
2223.10791
 20
55.076416
 10
2225.10791
 20
57.076416
  0
LWPOLYLINE
  5
19D
100
AcDbEntity
  8
LAYER01
370
    13
390
0
  6
Continuous
 62
   213
100
AcDbPolyline
 90
        2
 70
     0
 10
2223.10791
 20
52.382324
 10
2225.10791
 20
54.382324
  0
LWPOLYLINE
  5
19E
100
AcDbEntity
  8
LAYER01
370
    13
390
0
  6
Continuous
 62
   213
100
AcDbPolyline
 90
        2
 70
     0
 10
2223.10791
 20
60.4646
 10
2225.10791
 20
62.4646
  0
LWPOLYLINE
  5
19F
100
AcDbEntity
  8
LAYER01
370
    13
390
0
  6
Continuous
 62
   213
100
AcDbPolyline
 90
        2
 70
     0
 10
2223.10791
 20
63.158691
 10
2225.10791
 20
65.158691
  0
LWPOLYLINE
  5
1A0
100
AcDbEntity
  8
LAYER01
370
    13
390
0
  6
Continuous
 62
   213
100
AcDbPolyline
 90
        2
 70
     0
 10
2223.10791
 20
65.852783
 10
2225.10791
 20
67.852783
  0
LWPOLYLINE
  5
1A1
100
AcDbEntity
  8
LAYER01
370
    13
390
0
  6
Continuous
 62
   213
100
AcDbPolyline
 90
        2
 70
     0
 10
2223.10791
 20
68.546753
 10
2225.10791
 20
70.546753
  0
LWPOLYLINE
  5
1A2
100
AcDbEntity
  8
LAYER01
370
    13
390
0
  6
Continuous
 62
   213
100
AcDbPolyline
 90
        2
 70
     0
 10
2223.10791
 20
71.240845
 10
2225.10791
 20
73.240845
  0
LWPOLYLINE
  5
1A3
100
AcDbEntity
  8
LAYER01
370
    13
390
0
  6
Continuous
 62
   213
100
AcDbPolyline
 90
        2
 70
     0
 10
2223.10791
 20
73.934937
 10
2225.10791
 20
75.934937
  0
LWPOLYLINE
  5
1A4
100
AcDbEntity
  8
LAYER01
370
    13
390
0
  6
Continuous
 62
   213
100
AcDbPolyline
 90
        2
 70
     0
 10
2223.10791
 20
76.629028
 10
2225.10791
 20
78.629028
  0
LWPOLYLINE
  5
1A5
100
AcDbEntity
  8
LAYER01
370
    13
390
0
  6
Continuous
 62
   213
100
AcDbPolyline
 90
        2
 70
     0
 10
2223.10791
 20
79.32312
 10
2225.10791
 20
81.32312
  0
LWPOLYLINE
  5
1A6
100
AcDbEntity
  8
LAYER01
370
    13
390
0
  6
Continuous
 62
   213
100
AcDbPolyline
 90
        3
 70
     0
 10
2223.10791
 20
82.017212
 10
2223.404785
 20
82.313721
 10
2225.10791
 20
84.017212
  0
LWPOLYLINE
  5
1A7
100
AcDbEntity
  8
LAYER01
370
    13
390
0
  6
Continuous
 62
   213
100
AcDbPolyline
 90
        2
 70
     0
 10
2223.10791
 20
84.711304
 10
2225.10791
 20
86.711304
  0
LWPOLYLINE
  5
1A8
100
AcDbEntity
  8
LAYER01
370
    13
390
0
  6
Continuous
 62
   213
100
AcDbPolyline
 90
        2
 70
     0
 10
2223.10791
 20
87.405396
 10
2225.10791
 20
89.405396
  0
LWPOLYLINE
  5
1A9
100
AcDbEntity
  8
LAYER01
370
    13
390
0
  6
Continuous
 62
   213
100
AcDbPolyline
 90
        2
 70
     0
 10
2223.10791
 20
90.099365
 10
2225.10791
 20
92.099365
  0
LWPOLYLINE
  5
1AA
100
AcDbEntity
  8
LAYER01
370
    13
390
0
  6
Continuous
 62
   213
100
AcDbPolyline
 90
        2
 70
     0
 10
2223.10791
 20
92.793457
 10
2225.10791
 20
94.793457
  0
LWPOLYLINE
  5
1AB
100
AcDbEntity
  8
LAYER01
370
    13
390
0
  6
Continuous
 62
   213
100
AcDbPolyline
 90
        2
 70
     0
 10
2223.10791
 20
95.487549
 10
2224.934082
 20
97.313721
  0
ENDBLK
  5
1AC
100
AcDbEntity
  8
0
390
0
100
AcDbBlockEnd
  0
BLOCK
  5
1DC
100
AcDbEntity
  8
0
390
0
100
AcDbBlockBegin
  2
_BOHRBSB_U_77
 70
     0
 10
0.0
 20
0.0
 30
0.0
  3
_BOHRBSB_U_77
  1

  0
LWPOLYLINE
  5
1DD
100
AcDbEntity
  8
LAYER21
370
    13
390
0
  6
Continuous
 62
   213
100
AcDbPolyline
 90
        4
 70
     1
 10
4.044922
 20
-0.000061
 10
-4.044922
 20
-0.000061
 10
-4.044922
 20
3.200012
 10
4.044922
 20
3.200012
  0
LWPOLYLINE
  5
1DE
100
AcDbEntity
  8
LAYER21
370
    13
390
0
  6
Continuous
 62
   213
100
AcDbPolyline
 90
        8
 70
     1
 10
2.022461
 20
0.437439
 10
1.73291
 20
0.327576
 42
-0.183284
 10
-1.73291
 20
0.327576
 10
-2.022461
 20
0.437439
 10
-2.022461
 20
2.762512
 10
-1.734863
 20
2.871643
 42
-0.183491
 10
1.733887
 20
2.870178
 10
2.017578
 20
2.762512
  0
LWPOLYLINE
  5
1DF
100
AcDbEntity
  8
LAYER21
370
    13
390
0
  6
Continuous
 62
   213
100
AcDbPolyline
 90
        8
 70
     1
 10
-2.017578
 20
0.437439
 10
-2.361816
 20
0.247864
 42
-0.258411
 10
-3.704102
 20
0.250671
 10
-4.040039
 20
0.437439
 10
-4.040039
 20
2.762512
 10
-3.704102
 20
2.949402
 42
-0.258411
 10
-2.361328
 20
2.952209
 10
-2.017578
 20
2.762512
  0
LWPOLYLINE
  5
1E0
100
AcDbEntity
  8
LAYER21
370
    13
390
0
  6
Continuous
 62
   213
100
AcDbPolyline
 90
        8
 70
     1
 10
4.049805
 20
0.437439
 10
3.705566
 20
0.247864
 42
-0.258411
 10
2.363281
 20
0.250549
 10
2.027344
 20
0.437439
 10
2.027344
 20
2.762512
 10
2.363281
 20
2.949402
 42
-0.258411
 10
3.705566
 20
2.952087
 10
4.049805
 20
2.762512
  0
LWPOLYLINE
  5
1E1
100
AcDbEntity
  8
LAYER21
370
    13
390
0
  6
Continuous
 62
   213
100
AcDbPolyline
 90
        2
 70
     0
 10
2.022461
 20
0.437439
 10
2.022461
 20
2.762512
  0
LWPOLYLINE
  5
1E2
100
AcDbEntity
  8
LAYER21
370
    13
390
0
  6
Continuous
 62
   213
100
AcDbPolyline
 90
        2
 70
     0
 10
-2.022461
 20
0.437439
 10
-2.022461
 20
2.762512
  0
LWPOLYLINE
  5
1E3
100
AcDbEntity
  8
LAYER21
370
    13
390
0
  6
Continuous
 62
   213
100
AcDbPolyline
 90
        2
 70
     0
 10
0.0
 20
3.529602
 10
0.0
 20
-0.329651
  0
LWPOLYLINE
  5
1E4
100
AcDbEntity
  8
LAYER21
370
    13
390
0
  6
Continuous
 62
   213
100
AcDbPolyline
 90
        5
 70
     1
 10
2.002441
 20
-0.000061
 10
2.002441
 20
-17.801941
 10
0.0
 20
-24.477722
 10
-2.002441
 20
-17.801941
 10
-2.002441
 20
-0.000061
  0
LWPOLYLINE
  5
1E5
100
AcDbEntity
  8
LAYER21
370
    13
390
0
  6
Continuous
 62
   213
100
AcDbPolyline
 90
        2
 70
     0
 10
0.0
 20
9.777161
 10
0.0
 20
-38.58905
  0
ENDBLK
  5
1E6
100
AcDbEntity
  8
0
390
0
100
AcDbBlockEnd
  0
BLOCK
  5
1E9
100
AcDbEntity
  8
0
390
0
100
AcDbBlockBegin
  2
_BOHR_FV_U_77
 70
     0
 10
0.0
 20
0.0
 30
0.0
  3
_BOHR_FV_U_77
  1

  0
LWPOLYLINE
  5
1EA
100
AcDbEntity
  8
LAYER21
370
    13
390
0
  6
Continuous
 62
   213
100
AcDbPolyline
 90
        4
 70
     1
 10
4.044983
 20
0.0
 10
-4.044861
 20
0.0
 10
-4.044861
 20
3.199951
 10
4.044983
 20
3.199951
  0
LWPOLYLINE
  5
1EB
100
AcDbEntity
  8
LAYER21
370
    13
390
0
  6
Continuous
 62
   213
100
AcDbPolyline
 90
        8
 70
     1
 10
2.022522
 20
0.4375
 10
1.732727
 20
0.327637
 42
-0.183284
 10
-1.732605
 20
0.327637
 10
-2.0224
 20
0.4375
 10
-2.0224
 20
2.762451
 10
-1.734558
 20
2.871582
 42
-0.183491
 10
1.734192
 20
2.870117
 10
2.017639
 20
2.762451
  0
LWPOLYLINE
  5
1EC
100
AcDbEntity
  8
LAYER21
370
    13
390
0
  6
Continuous
 62
   213
100
AcDbPolyline
 90
        8
 70
     1
 10
-2.017517
 20
0.4375
 10
-2.361511
 20
0.247803
 42
-0.258411
 10
-3.704041
 20
0.250732
 10
-4.039978
 20
0.4375
 10
-4.039978
 20
2.762451
 10
-3.704041
 20
2.949463
 42
-0.258411
 10
-2.361511
 20
2.952148
 10
-2.017517
 20
2.762451
  0
LWPOLYLINE
  5
1ED
100
AcDbEntity
  8
LAYER21
370
    13
390
0
  6
Continuous
 62
   213
100
AcDbPolyline
 90
        8
 70
     1
 10
4.049866
 20
0.4375
 10
3.705627
 20
0.247803
 42
-0.258411
 10
2.363342
 20
0.250488
 10
2.027405
 20
0.4375
 10
2.027405
 20
2.762451
 10
2.363342
 20
2.949463
 42
-0.258411
 10
3.705627
 20
2.952148
 10
4.049866
 20
2.762451
  0
LWPOLYLINE
  5
1EE
100
AcDbEntity
  8
LAYER21
370
    13
390
0
  6
Continuous
 62
   213
100
AcDbPolyline
 90
        2
 70
     0
 10
2.022522
 20
0.4375
 10
2.022522
 20
2.762451
  0
LWPOLYLINE
  5
1EF
100
AcDbEntity
  8
LAYER21
370
    13
390
0
  6
Continuous
 62
   213
100
AcDbPolyline
 90
        2
 70
     0
 10
-2.0224
 20
0.4375
 10
-2.0224
 20
2.762451
  0
LWPOLYLINE
  5
1F0
100
AcDbEntity
  8
LAYER21
370
    13
390
0
  6
Continuous
 62
   213
100
AcDbPolyline
 90
        2
 70
     0
 10
0.000061
 20
3.529541
 10
0.000061
 20
-0.32959
  0
LWPOLYLINE
  5
1F1
100
AcDbEntity
  8
LAYER21
370
    13
390
0
  6
Continuous
 62
   213
100
AcDbPolyline
 90
        5
 70
     1
 10
2.002502
 20
0.0
 10
2.002502
 20
-23.324219
 10
0.000061
 20
-30.0
 10
-2.00238
 20
-23.324219
 10
-2.00238
 20
0.0
  0
LWPOLYLINE
  5
1F2
100
AcDbEntity
  8
LAYER21
370
    13
390
0
  6
Continuous
 62
   213
100
AcDbPolyline
 90
        2
 70
     0
 10
0.000061
 20
9.7771
 10
0.000061
 20
-44.111328
  0
ENDBLK
  5
1F3
100
AcDbEntity
  8
0
390
0
100
AcDbBlockEnd
  0
BLOCK
  5
1F7
100
AcDbEntity
  8
0
390
0
100
AcDbBlockBegin
  2
_D---BSC_U_77
 70
     0
 10
0.0
 20
0.0
 30
0.0
  3
_D---BSC_U_77
  1

  0
LWPOLYLINE
  5
1F8
100
AcDbEntity
  8
LAYER01
370
    18
390
0
  6
Continuous
 62
     7
100
AcDbPolyline
 90
        2
 70
     0
 10
2212.10791
 20
43.948486
 10
2212.10791
 20
22.438965
  0
LWPOLYLINE
  5
1F9
100
AcDbEntity
  8
LAYER01
370
    18
390
0
  6
Continuous
 62
     7
100
AcDbPolyline
 90
        2
 70
     0
 10
2184.10791
 20
43.948486
 10
2184.10791
 20
22.438965
  0
LWPOLYLINE
  5
1FA
100
AcDbEntity
  8
LAYER01
370
    18
390
0
  6
Continuous
 62
     7
100
AcDbPolyline
 90
        2
 70
     0
 10
2207.10791
 20
24.438965
 10
2189.10791
 20
24.438965
  0
LWPOLYLINE
  5
1FB
102
{ACAD_REACTORS
330
1FC
102
}
100
AcDbEntity
  8
HATCH_REACTORS
390
0
100
AcDbPolyline
 90
        3
 70
     1
 10
2207.10791
 20
23.605713
 10
2207.10791
 20
25.272339
 10
2212.10791
 20
24.439087
  0
HATCH
  5
1FC
100
AcDbEntity
  8
LAYER01
370
     5
390
0
  6
Continuous
 62
     7
100
AcDbHatch
 10
0.0
 20
0.0
 30
0.0
210
0.0
220
0.0
230
1.0
  2
_L-O---1
 70
     1
 71
     1
 91
        1
 92
        2
 72
     0
 73
     1
 93
        3
 10
2207.10791015625
 20
23.605712890625
 10
2207.10791015625
 20
25.2723388671875
 10
2212.10791015625
 20
24.4390869140625
 97
        1
330
1FB
 75
     0
 76
     0
 98
        0
  0
LWPOLYLINE
  5
1FD
102
{ACAD_REACTORS
330
1FE
102
}
100
AcDbEntity
  8
HATCH_REACTORS
390
0
100
AcDbPolyline
 90
        3
 70
     1
 10
2189.10791
 20
23.605713
 10
2184.10791
 20
24.439087
 10
2189.10791
 20
25.272339
  0
HATCH
  5
1FE
100
AcDbEntity
  8
LAYER01
370
     5
390
0
  6
Continuous
 62
     7
100
AcDbHatch
 10
0.0
 20
0.0
 30
0.0
210
0.0
220
0.0
230
1.0
  2
_L-O---1
 70
     1
 71
     1
 91
        1
 92
        2
 72
     0
 73
     1
 93
        3
 10
2189.10791015625
 20
23.605712890625
 10
2184.10791015625
 20
24.4390869140625
 10
2189.10791015625
 20
25.2723388671875
 97
        1
330
1FD
 75
     0
 76
     0
 98
        0
  0
INSERT
  5
203
100
AcDbEntity
  8
LAYER01
390
0
100
AcDbBlockReference
  2
IT5E11___U_77
 10
2198.10791
 20
28.939026
 30
0.0
  0
ENDBLK
  5
204
100
AcDbEntity
  8
0
390
0
100
AcDbBlockEnd
  0
BLOCK
  5
200
100
AcDbEntity
  8
0
390
0
100
AcDbBlockBegin
  2
IT5E11___U_77
 70
     0
 10
0.0
 20
0.0
 30
0.0
  3
IT5E11___U_77
  1

  0
MTEXT
  5
201
100
AcDbEntity
  8
LAYER01
390
0
  6
Continuous
 62
     7
100
AcDbMText
 10
-12.432129
 20
0.0
 30
0.0
 40
3.24
 41
0.0
 71
     7
 72
     1
  1
{\fArial|b0|i0|c12|p0;>15/<50 mm}
 73
     1
 44
1.333333
  0
ENDBLK
  5
202
100
AcDbEntity
  8
0
390
0
100
AcDbBlockEnd
  0
BLOCK
  5
207
100
AcDbEntity
  8
0
390
0
100
AcDbBlockBegin
  2
_D---BSD_U_77
 70
     0
 10
0.0
 20
0.0
 30
0.0
  3
_D---BSD_U_77
  1

  0
LWPOLYLINE
  5
208
100
AcDbEntity
  8
LAYER01
370
    18
390
0
  6
Continuous
 62
     7
100
AcDbPolyline
 90
        2
 70
     0
 10
2188.60791
 20
58.948486
 10
2166.70459
 20
58.948486
  0
LWPOLYLINE
  5
209
100
AcDbEntity
  8
LAYER01
370
    18
390
0
  6
Continuous
 62
     7
100
AcDbPolyline
 90
        2
 70
     0
 10
2188.60791
 20
83.948486
 10
2166.70459
 20
83.948486
  0
LWPOLYLINE
  5
20A
100
AcDbEntity
  8
LAYER01
370
    18
390
0
  6
Continuous
 62
     7
100
AcDbPolyline
 90
        2
 70
     0
 10
2168.70459
 20
63.948486
 10
2168.70459
 20
78.948486
  0
LWPOLYLINE
  5
20B
102
{ACAD_REACTORS
330
20C
102
}
100
AcDbEntity
  8
HATCH_REACTORS
390
0
100
AcDbPolyline
 90
        3
 70
     1
 10
2169.537598
 20
63.948486
 10
2168.70459
 20
58.948486
 10
2167.871094
 20
63.948486
  0
HATCH
  5
20C
100
AcDbEntity
  8
LAYER01
370
     5
390
0
  6
Continuous
 62
     7
100
AcDbHatch
 10
0.0
 20
0.0
 30
0.0
210
0.0
220
0.0
230
1.0
  2
_L-O---1
 70
     1
 71
     1
 91
        1
 92
        2
 72
     0
 73
     1
 93
        3
 10
2169.53759765625
 20
63.948486328125
 10
2168.70458984375
 20
58.948486328125
 10
2167.87109375
 20
63.948486328125
 97
        1
330
20B
 75
     0
 76
     0
 98
        0
  0
LWPOLYLINE
  5
20D
102
{ACAD_REACTORS
330
20E
102
}
100
AcDbEntity
  8
HATCH_REACTORS
390
0
100
AcDbPolyline
 90
        3
 70
     1
 10
2169.537598
 20
78.948486
 10
2167.871094
 20
78.948486
 10
2168.70459
 20
83.948486
  0
HATCH
  5
20E
100
AcDbEntity
  8
LAYER01
370
     5
390
0
  6
Continuous
 62
     7
100
AcDbHatch
 10
0.0
 20
0.0
 30
0.0
210
0.0
220
0.0
230
1.0
  2
_L-O---1
 70
     1
 71
     1
 91
        1
 92
        2
 72
     0
 73
     1
 93
        3
 10
2169.53759765625
 20
78.948486328125
 10
2167.87109375
 20
78.948486328125
 10
2168.70458984375
 20
83.948486328125
 97
        1
330
20D
 75
     0
 76
     0
 98
        0
  0
INSERT
  5
213
100
AcDbEntity
  8
LAYER01
390
0
100
AcDbBlockReference
  2
IT5E11___U_772
 10
2164.20459
 20
71.448547
 30
0.0
 50
90.0
  0
ENDBLK
  5
214
100
AcDbEntity
  8
0
390
0
100
AcDbBlockEnd
  0
BLOCK
  5
210
100
AcDbEntity
  8
0
390
0
100
AcDbBlockBegin
  2
IT5E11___U_772
 70
     0
 10
0.0
 20
0.0
 30
0.0
  3
IT5E11___U_772
  1

  0
MTEXT
  5
211
100
AcDbEntity
  8
LAYER01
390
0
  6
Continuous
 62
     7
100
AcDbMText
 10
-12.432251
 20
0.0
 30
0.0
 40
3.24
 41
0.0
 71
     7
 72
     1
  1
{\fArial|b0|i0|c12|p0;>15/<50 mm}
 11
1.0
 21
0.0
 31
0.0
 73
     1
 44
1.333333
  0
ENDBLK
  5
212
100
AcDbEntity
  8
0
390
0
100
AcDbBlockEnd
  0
BLOCK
  5
21A
100
AcDbEntity
  8
0
390
0
100
AcDbBlockBegin
  2
T-ROCKP__U_M_77
 70
     0
 10
0.0
 20
0.0
 30
0.0
  3
T-ROCKP__U_M_77
  1

  0
MTEXT
  5
21B
100
AcDbEntity
  8
LAYER01
390
0
  6
Continuous
 62
     7
100
AcDbMText
 10
53.455078
 20
-1.666687
 30
0.0
 40
4.5
 41
0.0
 71
     7
 72
     1
  1
{\fArial|b0|i0|c12|p0;ROCKPANEL 8MM}
 11
-1.0
 21
0.0
 31
0.0
 73
     1
 44
1.333333
  0
ENDBLK
  5
21C
100
AcDbEntity
  8
0
390
0
100
AcDbBlockEnd
  0
BLOCK
  5
21F
100
AcDbEntity
  8
0
390
0
100
AcDbBlockBegin
  2
T-ACHTER_U_77
 70
     0
 10
0.0
 20
0.0
 30
0.0
  3
T-ACHTER_U_77
  1

  0
MTEXT
  5
220
100
AcDbEntity
  8
LAYER127
390
0
  6
Continuous
 62
     7
100
AcDbMText
 10
0.0
 20
11.666687
 30
0.0
 40
4.5
 41
0.0
 71
     7
 72
     1
  1
{\fArial|b0|i0|c12|p0;* BIJ OPEN GEVELSYSTEMEN OP ALUMINIUM ACHTERCONSTRUCTIE}
 73
     1
 44
1.333333
  0
MTEXT
  5
222
100
AcDbEntity
  8
LAYER127
390
0
  6
Continuous
 62
     7
100
AcDbMText
 10
0.0
 20
1.666687
 30
0.0
 40
4.5
 41
0.0
 71
     7
 72
     1
  1
{\fArial|b0|i0|c12|p0;  ADVISEERT ROCKPANEL EEN SPOUWDIEPTE VAN TENMINSTE  60 MM}
 73
     1
 44
1.333333
  0
ENDBLK
  5
223
100
AcDbEntity
  8
0
390
0
100
AcDbBlockEnd
  0
BLOCK
  5
226
100
AcDbEntity
  8
0
390
0
100
AcDbBlockBegin
  2
T-VENTIL_U_77
 70
     0
 10
0.0
 20
0.0
 30
0.0
  3
T-VENTIL_U_77
  1

  0
MTEXT
  5
227
100
AcDbEntity
  8
LAYER127
390
0
  6
Continuous
 62
     7
100
AcDbMText
 10
0.0
 20
1.666687
 30
0.0
 40
4.5
 41
0.0
 71
     7
 72
     1
  1
{\fArial|b0|i0|c12|p0;VENTILATIE}
 73
     1
 44
1.333333
  0
ENDBLK
  5
228
100
AcDbEntity
  8
0
390
0
100
AcDbBlockEnd
  0
BLOCK
  5
256
100
AcDbEntity
  8
0
390
0
100
AcDbBlockBegin
  2
KLPL2_A4_U_0
 70
     0
 10
0.0
 20
0.0
 30
0.0
  3
KLPL2_A4_U_0
  1

  0
LWPOLYLINE
  5
257
100
AcDbEntity
  8
LAYER98
370
    18
390
0
  6
Continuous
 62
     7
100
AcDbPolyline
 90
        4
 70
     1
 10
-180.0
 20
190.0
 10
97.0
 20
190.0
 10
97.0
 20
0.0
 10
-180.0
 20
0.0
  0
LWPOLYLINE
  5
258
100
AcDbEntity
  8
LAYER98
370
    25
390
0
  6
DOT
 62
     8
100
AcDbPolyline
 90
        2
 70
     0
 10
107.0
 20
200.0
 10
105.366943
 20
198.845459
  0
LWPOLYLINE
  5
259
100
AcDbEntity
  8
LAYER98
370
    25
390
0
  6
DOT
 62
     8
100
AcDbPolyline
 90
        2
 70
     0
 10
-190.0
 20
200.0
 10
-188.366943
 20
198.845215
  0
LWPOLYLINE
  5
25A
100
AcDbEntity
  8
LAYER98
370
    25
390
0
  6
DOT
 62
     8
100
AcDbPolyline
 90
        2
 70
     0
 10
-190.0
 20
-10.0
 10
-188.366943
 20
-8.845215
  0
LWPOLYLINE
  5
25B
100
AcDbEntity
  8
LAYER98
370
    25
390
0
  6
DOT
 62
     8
100
AcDbPolyline
 90
        2
 70
     0
 10
107.0
 20
-10.0
 10
105.366943
 20
-8.845459
  0
LWPOLYLINE
  5
25C
100
AcDbEntity
  8
LAYER98
370
    35
390
0
  6
Continuous
 62
   134
100
AcDbPolyline
 90
        2
 70
     0
 10
-149.800049
 20
190.0
 10
-149.800049
 20
0.0
  0
MTEXT
  5
25D
100
AcDbEntity
  8
LAYER98
390
0
  6
Continuous
 62
     7
100
AcDbMText
 10
-156.866714
 20
177.800049
 30
0.0
 40
4.5
 41
0.0
 71
     7
 72
     1
  1
{\fArial|b0|i0|c12|p0;DETAIL 2-201B}
 11
0.0
 21
-1.0
 31
0.0
 73
     1
 44
1.333333
  0
MTEXT
  5
25E
100
AcDbEntity
  8
LAYER98
390
0
  6
Continuous
 62
     7
100
AcDbMText
 10
-164.416718
 20
177.800049
 30
0.0
 40
3.15
 41
0.0
 71
     7
 72
     1
  1
{\fArial|b0|i0|c12|p0;buitenhoekdetail bij}
 11
0.0
 21
-1.0
 31
0.0
 73
     1
 44
1.333333
  0
MTEXT
  5
25F
100
AcDbEntity
  8
LAYER98
390
0
  6
Continuous
 62
     7
100
AcDbMText
 10
-169.966721
 20
177.800049
 30
0.0
 40
3.15
 41
0.0
 71
     7
 72
     1
  1
{\fArial|b0|i0|c12|p0;aluminium draagconstructie}
 11
0.0
 21
-1.0
 31
0.0
 73
     1
 44
1.333333
  0
ENDBLK
  5
260
100
AcDbEntity
  8
0
390
0
100
AcDbBlockEnd
  0
ENDSEC
  0
SECTION
  2
ENTITIES
  0
IMAGE
  5
262
100
AcDbEntity
  8
LAYER98
390
0
 92
      140
310
0000000000000000840000000600000005000000000000009A59604000000000532166400000000000000000000000009A596040894CC3F6FFFF704000000000000000000000000000206440894CC3F6FFFF704000000000000000000000000000206440FFFFFFFF522166400000000000000000000000009A596040FFFFFF
310
FF522166400000000000000000
100
AcDbRasterImage
 90
        0
 10
130.800049
 20
177.041382
 30
0.0
 11
0.077835
 21
0.0
 31
0.0
 12
0.0
 22
0.077835
 32
0.0
 13
388.0
 23
1220.0
340
266
 70
     7
280
     0
281
    50
282
    50
283
     0
360
265
 71
     1
 91
        2
 14
-0.5
 24
-0.5
 14
387.5
 24
1219.5
  0
VIEWPORT
  5
28
100
AcDbEntity
 67
     1
  8
0
390
0
100
AcDbViewport
 10
0.0
 20
0.0
 30
0.0
 40
1.0
 41
1.0
 68
     0
 69
     1
 12
23.0
 22
-33.0
 13
0.0
 23
0.0
 14
0.5
 24
0.5
 15
0.5
 25
0.5
 16
0.0
 26
0.0
 36
1.0
 17
0.0
 27
0.0
 37
0.0
 42
50.0
 43
0.0
 44
0.0
 45
1064.000052
 50
0.0
 51
0.0
 72
   100
 90
    32800
340
0
  1

281
     0
 71
     0
 74
     1
110
0.0
120
0.0
130
0.0
111
1.0
121
0.0
131
0.0
112
0.0
122
1.0
132
0.0
345
0
346
0
 79
     0
146
0.0
  0
LWPOLYLINE
  5
253
100
AcDbEntity
 67
     1
  8
0
390
0
100
AcDbPolyline
 90
        4
 70
     1
 10
-116.0
 20
82.0
 10
-116.0
 20
272.0
 10
130.800049
 20
272.0
 10
130.800049
 20
82.0
  0
VIEWPORT
  5
254
100
AcDbEntity
 67
     1
  8
LAYER98
390
0
100
AcDbViewport
 10
7.400024
 20
177.0
 30
0.0
 40
246.800049
 41
190.0
 68
     2
 69
     2
 12
0.0
 22
0.0
 13
0.0
 23
0.0
 14
0.5
 24
0.5
 15
0.5
 25
0.5
 16
0.0
 26
0.0
 36
1.0
 17
-770.847961
 27
-4062.309692
 37
0.0
 42
50.0
 43
0.0
 44
0.0
 45
380.0
 50
0.0
 51
0.0
 72
   100
 90
    65536
340
253
  1

281
     0
 71
     0
 74
     1
110
0.0
120
0.0
130
0.0
111
1.0
121
0.0
131
0.0
112
0.0
122
1.0
132
0.0
345
0
346
0
 79
     0
146
0.0
  0
INSERT
  5
261
100
AcDbEntity
 67
     1
  8
LAYER98
390
0
100
AcDbBlockReference
  2
KLPL2_A4_U_0
 10
-19.0
 20
272.0
 30
0.0
 50
180.0
  0
INSERT
  5
252
100
AcDbEntity
  8
LAYER98
390
0
100
AcDbBlockReference
  2
DET-DUI2_77
 10
0.0
 20
0.0
 30
0.0
  0
ENDSEC
  0
SECTION
  2
OBJECTS
  0
DICTIONARY
  5
19
100
AcDbDictionary
280
     0
281
     1
  3
ACAD_GROUP
350
1A
  3
ACAD_MLINESTYLE
350
1B
  3
ACAD_LAYOUT
350
1E
  3
ACAD_PLOTSETTINGS
350
22
  3
ACAD_PLOTSTYLENAME
350
1F
  3
ACAD_WIPEOUT_VARS
350
23
  3
ACAD_IMAGE_VARS
350
263
  3
ACAD_IMAGE_DICT
350
264
  0
DICTIONARY
  5
1A
102
{ACAD_REACTORS
330
19
102
}
100
AcDbDictionary
280
     0
281
     1
  0
DICTIONARY
  5
1B
102
{ACAD_REACTORS
330
19
102
}
100
AcDbDictionary
280
     0
281
     1
  3
Standard
350
1C
  0
MLINESTYLE
  5
1C
102
{ACAD_REACTORS
330
1B
102
}
100
AcDbMlineStyle
  2
Standard
 70
     0
  3

 62
     0
 51
90.0
 52
90.0
 71
     2
 49
0.5
 62
   256
  6
ByLayer
 49
-0.5
 62
   256
  6
ByLayer
  0
ACDBDICTIONARYWDFLT
  5
1F
102
{ACAD_REACTORS
330
19
102
}
100
AcDbDictionary
281
     1
  3
Normal
350
1D
100
AcDbDictionaryWithDefault
340
1D
  0
ACDBPLACEHOLDER
  5
1D
102
{ACAD_REACTORS
330
1F
102
}
  0
LAYOUT
  5
20
102
{ACAD_REACTORS
330
1E
102
}
100
AcDbPlotSettings
  1

  2

  4

  6

 40
0.0
 41
0.0
 42
0.0
 43
0.0
 44
0.0
 45
0.0
 46
0.0
 47
0.0
 48
0.0
 49
0.0
140
0.0
141
0.0
142
1.0
143
1.0
 70
  1024
 72
     0
 73
     0
 74
     0
  7

 75
     0
147
1.0
148
0.0
149
0.0
100
AcDbLayout
  1
Model
 70
     0
 71
     0
 10
0.0
 20
0.0
 11
0.0
 21
0.0
 12
0.0
 22
0.0
 32
0.0
 14
0.0
 24
0.0
 34
0.0
 15
0.0
 25
0.0
 35
0.0
146
0.0
 13
0.0
 23
0.0
 33
0.0
 16
0.0
 26
0.0
 36
0.0
 17
0.0
 27
0.0
 37
0.0
 76
     0
330
A
331
0
345
0
346
0
  0
LAYOUT
  5
21
102
{ACAD_REACTORS
330
1E
102
}
100
AcDbPlotSettings
  1

  2

  4

  6

 40
0.0
 41
0.0
 42
0.0
 43
0.0
 44
0.0
 45
0.0
 46
0.0
 47
0.0
 48
0.0
 49
0.0
140
0.0
141
0.0
142
1.0
143
1.0
 70
     0
 72
     0
 73
     0
 74
     0
  7

 75
     0
147
1.0
148
0.0
149
0.0
100
AcDbLayout
  1
Layout1
 70
     0
 71
     0
 10
0.0
 20
0.0
 11
0.0
 21
0.0
 12
0.0
 22
0.0
 32
0.0
 14
0.0
 24
0.0
 34
0.0
 15
0.0
 25
0.0
 35
0.0
146
0.0
 13
0.0
 23
0.0
 33
0.0
 16
0.0
 26
0.0
 36
0.0
 17
0.0
 27
0.0
 37
0.0
 76
     0
330
B
331
0
345
0
346
0
  0
DICTIONARY
  5
1E
102
{ACAD_REACTORS
330
19
102
}
100
AcDbDictionary
280
     0
281
     1
  3
Layout1
350
21
  3
Model
350
20
  0
DICTIONARY
  5
22
102
{ACAD_REACTORS
330
19
102
}
100
AcDbDictionary
280
     0
281
     1
  0
WIPEOUTVARIABLES
  5
23
100
AcDbWipeoutVariables
 70
     1
  0
RASTERVARIABLES
  5
263
102
{ACAD_REACTORS
330
19
102
}
100
AcDbRasterVariables
 90
        0
 70
     1
 71
     1
 72
     0
  0
DICTIONARY
  5
264
102
{ACAD_REACTORS
330
19
102
}
100
AcDbDictionary
280
     0
281
     1
  3

350
266
  0
IMAGEDEF
  5
266
102
{ACAD_REACTORS
330
264
330
265
102
}
100
AcDbRasterImageDef
 90
        0
  1
.PCX
 10
388.0
 20
1220.0
 11
0.352778
 21
0.352778
280
     1
281
     5
  0
IMAGEDEF_REACTOR
  5
265
100
AcDbRasterImageDefReactor
 90
        2
330
262
  0
ENDSEC
  0
EOF
